PrimaNota.ru - самый крупный в мире бесплатный архив песенных текстов, аккордов, табулатур и нот


Midnight Oil - Cemetery In My Mind - текст песни, бас-таба, видео

Регистрация Запомнить меня
Войти через:  Facebook Google Twitter Vk Yandex Mail.ru

Midnight Oil - Cemetery In My Mind - текст песни, бас-таба, видео

Печатать
Просмотров: 146
CEMETERY IN MY MIND

Midnight Oil
Album : Redneck Wonderland
Bass : Bones Hillman

Transcribed by B.Camp

INTRO:
G |---------------------------------|---------------------------------|
D |---------------------------------|-7-7-7-7-7-------9-9-9-9---------|
A |-7-7-7-7-7-------5-5-5-5-5-------|---------------------------------| x2
E |---------------------------------|---------------------------------|

VERSE:
G |---------------------------------|---------------------------------|
D |--------------------------7h9h10-|---------------------------------|
A |-7---7-7/10-10---5---5-5---------|-7---7-7---5-5-5-3---3-3---------|
E |---------------------------------|--------------------------2-3-2--|

G |---------------------------------|---------------------------------|
D |--------------------------7h9h10-|-------------------------4h5h4---|
A |-7---7-7/10-10---5---5-5---------|-7---7-7---5-5-5-3---3-3---------|
E |---------------------------------|---------------------------------|

G |---------------------------------|---------------------------------|
D |--------------------------7h9h10-|---------------------------------|
A |-7---7-7/10-10---5---5-5---------|-7---7-7---5-5-5-3---3-3---------|
E |---------------------------------|---------------------------2-3-2-|

BRIDGE:
G |---------------------------------|---------------------------------|
D |---------------------------------|---------------------------------|
A |-----------------5-5-5-5-5-5h7h5-|-----------------5-5-5-5-5-5-5-5-|
E |-5-5-5-5-5-5-5-5-----------------|-5-5-5-5-5-5-5-5-----------------|

G |---------------------------------|---------------------------------|
D |---------------------------------|---------------------------------|
A |-----------------5-5-5-5-5-5-5-5-|-7-7-7-7-7-7-7-7-7-7-7-7-7-7-7-7-|
E |-5-5-5-5-5-5-5-5-----------------|---------------------------------|

CHORUS:
G |---------------------------------|---------------------------------|
D |---------------------------------|---------------------------------|
A |---------------------------------|---------------------------------|
E |-5-5-5 / 17 \--5-5-5-5 / 17 \----|-5-5-5 / 17 \--5-5-5-5 / 17 \----|

G |---------------------------------|---------------------------------|
D |---------------------------------|---------------------------------|
A |---------------------------------|---------------------------------|
E |-5-5-5 / 17 \----1-1-1-1-1-1-1-1-|-1-1-1-1-1-1-1-1-----------------|

END PART:
G |---------------------------------|---------------------------------|
D |---------------------------------|---------------------------------|
A |-7-7-7-7-7-7-7-7-7-7-7-7--7--5-5-|-3-3-3-3 / 15 \--3-3-3 / 15 \ 3--|
E |---------------------------------|---------------------------------|
Добавлено: 30.08.2013
Другие материалы по этой песне:
  • Аккорды и текст

Страница создана 11.07.2012
http://primanota.ru/midnight-oil/cemetery-in-my-mind-chords.htm
Привет, Гость.
Предлагаем пройти революционный курс по гитаре.
Подарок от PrimaNota.Ru, забирай!