PrimaNota.ru - самый крупный в мире бесплатный архив песенных текстов, аккордов, табулатур и нот


Midnight Oil - Bring On The Change - текст песни, бас-таба, видео

Регистрация Запомнить меня
Войти через:  Facebook Google Twitter Vk Yandex Mail.ru

Midnight Oil - Bring On The Change - текст песни, бас-таба, видео

Печатать
Просмотров: 116
BRING ON THE CHANGE

Midnight Oil
Album : Breathe
Bass : Bones Hillman

INTRO:
G |---------------------------------|
D |---------------------------------|
A |---------------------------------|
E |-4--24---24--02--04--------------|

VERSE (drums join):
G |---------------------------------|---------------------------------|
D |---------------------------------|---------------------------------|
A |-2-2-02-02--0-1-2-2-2-02-02-0-1-2|-2-2-02-02--0-1-2/9-9-9-9-9-9-9-9|
E |----------2----------------2-----|----------2----------------------|

CHORUS:
G |---------------------------------|---------------------------------|
D |---------------------------------|---------------------------------|
A |-7---7---77--77--77--77----------|--5---5--55--55--55--55----------|
E |---------------------------------|---------------------------------|

G |---------------------------------|---------------------------------|
D |---------------------------------|---------------------------------|
A |---------------------------------|---------------------------------|
E |-7---7---77---77---77---77-------|-4---4---44---44---44---44-------|

Bring on the change.......
G |---------------------------------|---------------------------------|
D |---------------------------------|---------------------------------|
A |-7---7---77--77--77--77----------|---------------------------------|
E |---------------------------------|---4---4--44--44--44--44---------|

G |---------------------------------|---------------------------------|
D |---------------------------------|---------------------------------|
A |---------------------------------|---------------------------------|
E |---4---4---44--44--44--44--------|--4---4---44--44--44--44---------|

ENDING PARTS:
G |---------------------------------|
D |---------------------------------|
A |---------------------------------|
E |--4--4--24--24---0---2---4-------|

G |---------------------------------|
D |---------------------------------|
A |---------------------------------|
E |--0--0-0-0-0---2--2-2-2--2-------|

Transcribed by Brian Camp
E-mail: cambrian@vianet.net.au
Добавлено: 16.02.2014
Другие материалы по этой песне:
  • Аккорды и текст

Страница создана 21.04.2012
http://primanota.ru/midnight-oil/bring-on-the-change-chords.htm
Привет, Гость.
Предлагаем пройти революционный курс по гитаре.
Подарок от PrimaNota.Ru, забирай!