PrimaNota.ru - самый крупный в мире бесплатный архив песенных текстов, аккордов, табулатур и нот


Midnight Oil - Brave Faces - текст песни, бас-таба, видео

Регистрация Запомнить меня
Войти через:  Facebook Google Twitter Vk Yandex Mail.ru

Midnight Oil - Brave Faces - текст песни, бас-таба, видео

Печатать
Просмотров: 117
BRAVE FACES

Moginie/Garrett
Album : Place without a Postcard
Bass : Peter Gifford

INTRO:
G |---------------------------------|---------------------------------|
D |---------------------------------|---------------------------------|
A |-2-2-2-2-2-2-2-2-2-2-2-2-2-2-2-2-|-2-2-2-2-2-2-2-2-2-2-2-2-2-2-2-2-|
E |---------------------------------|---------------------------------|

VERSE:
..............I've seen faces
G |----------------------------------|---------------------------------|
D |*---------------------------------|---------------------------------|
A |*-2-2-2-2-2-2-2-2-4-4-4-4-4-4-4-4-|-2-2-2-2-2-2-2-2-4-4-4-4-4-4-4-4-|
E |----------------------------------|---------------------------------|

G |----------------------------------|
D |---------------------------------*|
A |-6-6-6-6-6-6-6-6-5-5-5-5-5-5-5-5-*| x4
E |----------------------------------|

G |---------------------------------|---------------------------------|
D |---------------------------------|---------------------------------|
A |-----2-3---2---------2-3---2-----|---0-4-5---4-0-----0-4-5---4-0---|
E |-0-3---------3-0---3---------3---|-2-------------2-----------------|

.........They're all talking shit to me
G |---------------------------------|---------------------------------|
D |---------------------------------|---------------------------------|
A |-5-------------------------------|-0-------------------------------|
E |---------------------------------|---------------------------------|

Back to VERSE

G |------------------|-----------------|------------------|
D |*-----------------|-----------------|-----------------*|
A |*-------2---------|-------2-5-5-4-2-|-4-4-2-0-3-3-2-0-*| x4
E |--0-0-3---0-----0-|---0-3-----------|------------------|

G |---------------------------------|---------------------------------|
D |---------------------------------|---------------------------------|
A |---------------------------------|---------------------------------|
E |-1---------------1---------------|-1---------------1---------------|

........Why don't they understand?
G |---------------------------------|---------------------------------|
D |---------------------------------|---------------------------------|
A |---------------------------------|---------------------------------|
E |-1---------------1---------------|-1---------------1---------------|

G |---------------------------------|---------------------------------|
D |-------------------------------2-|-4-------------------------------|
A |---------------------------------|-----------4-3-2-----------------|
E |-0-------------0-2---------------|-----------------1---------------|

CHORUS:
................I saw the exits closing
G |---------------------------------|---------------------------------|
D |---------------------------------|---------------------------------|
A |-----------------5-----5-5-5---4-|---------------------------------|
E |-2-----2-2-2---------------------|-5-----5-5-5---5-2-----2-2-2-----|

G |---------------------------------|---------------------------------|
D |---------------------------------|---------------------------------|
A |-2-2-2-2-2-2-----4-4---4-4-4---4-|-6-6---6-6-6---4-5-5---5-5-0-4---|
E |---------------------------------|---------------------------------|

G |---------------------------------|
D |---------------------------------|
A |-3-3-3-3-3-3-3-3-3-3-3-3-3-3-3-3-|
E |---------------------------------|

VERSE 2:
...........I've seen men
G |----------------------------------|---------------------------------|
D |*---------------------------------|---------------------------------|
A |*-3-3-3-3-3-3-3-3-5-5-5-5-5-5-5-5-|-3-3-3-3-3-3-3-3-5-5-5-5-5-5-5-5-|
E |----------------------------------|---------------------------------|

G |----------------------------------|
D |---------------------------------*|
A |-7-7-7-7-7-7-7-7-8-8-8-8-8-8-8-8-*|
E |----------------------------------|

G |---------------------------------|---------------------------------|
D |---------------------------------|---------------------------------|
A |-------2-----------------2-------|-------0-4-------------0-4-------|
E |-0-0-3---0-------0---0-3---0-----|-2---2-----2-----2---2-----2-----|

.........Well it makes no sense to me
G |---------------------------------|---------------------------------|
D |---------------------------------|-------------7---5---------------|
A |-5-------------------------------|-0-------------------------------|
E |---------------------------------|---------------------------------|

G |---------------------------------|-----------------0---------------|
D |---------------------------------|-----------0-1-3-----3-----------|
A |---------------------------------|-----0-1-3-----------------------|
E |-1---------------1---------------|-1-3-----------------------------|

END CHORUS:
G |---------------------------------|---------------------------------|
D |---------------------------------|---------------------------4-0-4-|
A |-----------2-4-2-5-----5-5-----4-|---------------------------------|
E |-2-----2-2-----------------------|-5-----5-5-------2-----2-2-------|

G |---------------------------------|---------------------------------|
D |---------------------------------|-----------------7---------------|
A |-2-2-2-2-2-------4-4-4-4-4-------|-6-6-6-6-6-----------------------|
E |---------------------------------|---------------------------------|

G |---------------------------------|-----------------|
D |-5-------------------------------|-----------------|
A |---------------------------------|-----------------|
E |---------------------------------|---------------0-|

ENDING/GUITAR SOLO:
G |------------------|-----------------|------------------|
D |*-----------------|-----------------|-----------------*|
A |*-------2---------|-------2-5-5-4-2-|-4-4-2-0-3-3-2-0-*| x9
E |--0-0-3---0-----0-|---0-3-----------|------------------|

G |-----------------|-----------------|-----------------|
D |---------0-4-0-2-|-----------------|-----------------|
A |-------2---------|-------2-5-5-4-2-|-4-4-2-0-3-3-2-0-|
E |-0-0-3-----------|---0-3-----------|-----------------|

G |-----------------|-----------------|-----------------|
D |-----------------|-----------------|-----------------|
A |-------2---------|-------2-5-5-4-2-|-4-4-2-0-3-3-2-0-|
E |-0-0-3---0-----0-|---0-3-----------|-----------------|

G |-----------------|-----------------|-----------------|
D |-----------------|-----------------|-----------------|
A |-------2-----5---|-------2-5-5-4-2-|-4-4-2-0-3-3-2-0-|
E |-0-0-3---0-2---0-|---0-3-----------|-----------------|

G |---------4-5-7-|----|
D |---4-5-7-------|----|
A |-7-------------|-7\-|
E |---------------|----|

Transcribed by Brian Camp
E-mail: cambrian@vianet.net.au
Добавлено: 07.11.2013
Другие материалы по этой песне:
  • Аккорды и текст

Страница создана 04.07.2012
http://primanota.ru/midnight-oil/brave-faces-chords.htm
Привет, Гость.
Предлагаем пройти революционный курс по гитаре.
Подарок от PrimaNota.Ru, забирай!