PrimaNota.ru - самый крупный в мире бесплатный архив песенных текстов, аккордов, табулатур и нот


Midnight Oil - Best of Both Worlds - текст песни, бас-таба, видео

Регистрация Запомнить меня
Войти через:  Facebook Google Twitter Vk Yandex Mail.ru

Midnight Oil - Best of Both Worlds - текст песни, бас-таба, видео

Печатать
Просмотров: 109
Авторы: Jim Moginie, Rob Hirst

BEST OF BOTH WORLDS

Hirst/Moginie
Album : Red Sails in the Sunset
Bass : Peter Gifford

INTRO:
G |---------------------------------|---------------------------------|
D |---------------------------------|---------------------------------|
A |-5-5-5-5-5-5-5-5-5-5-5-5-5-5-5-5-|-5-5-5-5-5-5-5-5-5-5-5-5-5-5-5-5-|
E |---------------------------------|---------------------------------|

G |---------------------------------|---------------------------------|
D |---------------------------------|---------------------------------|
A |-5-5-5-5-5-5-5-5-5-5-5-5-5-5-5-5-|-5-5-5-5-5-5-5-5-5-5-5-5-5-\\\\\-|
E |---------------------------------|---------------------------------|

G |----------------------------------|----------------------------------|
D |*---------------------------------|---------------------------------*|
A |*-5-5-5/7---7-7---3-3-3/5---5-5---|---------------------------------*|
E |----------------------------------|-7-7-7-6---6-6---5-5-5-3---3-3----|

VERSE:
...You say..........times....are......tough
G |---------------------------------|---------------------------------|
D |---------------------------------|---------------------------------|
A |-7-7-7-7-7-7-7-7-5-5-5-5---------|---------5-5-5-5-5-5-5-5-5-5-5-5-|
E |-------------------------7-7-7-7-|-8-8-8-8-------------------------|

G |---------------------------------|---------------------------------|
D |---------------------------------|---------------------------------|
A |-7-7-7-7-5-5-5-5-5-5-5-5---------|---------5-5-5-5-5-5-5-5-5-5-5-5-|
E |-------------------------7-7-7-7-|-8-8-8-8-------------------------|

G |---------------------------------|---------------------------------|
D |---------------------------------|---------------------------------|
A |-7-7-7-7-5-5-5-5-5-5-5-5---------|---------5-5-5-5-5-5-5-5-5-5-5-0-|
E |-------------------------7-7-7-7-|-8-8-8-8-------------------------|

INTRO/INBETWEEN VERSE:
G |---------------------------------|---------------------------------|
D |---------------------------------|---------------------------------|
A |-5-5-5-5-5-5-5-5-5-5-5-5-5-5-5-5-|-5-5-5-5-5-5-5-5-5-5-5-5-5-\\\\\-|
E |---------------------------------|---------------------------------|

G |---------------------------------|---------------------------------|
D |---------------------------------|---------------------------------|
A |-5-5-5/7---7-7---3-3-3/5---5-5---|---------------------------------|
E |---------------------------------|-7-7-7-6---6-6---5-5-5-3---3-3---|

VERSE 2 - Same as Verse 1 & add,

G |---------------------------------|
D |---------------------------------|
A |-5-5-5-5-5-5-5-5-5-5-5-5-5-5-5-5-|
E |---------------------------------|

MIDDLE:
The near world
G |---------------------------------|---------------------------------|
D |---------------------------------|---------------------------------|
A |---------------------------------|---------------------------------|
E |---------------------------------|---------------------------------|

G |---------------------------------|---------------------------------|
D |---------------------------------|---------------------------------|
A |---------------------------------|---------------------------------|
E |---------------------------------|---------------------------------|

G |---------------------------------|---------------------------------|
D |---------------------------------|---------------------------------|
A |---------------------------------|---------------------------------|
E |---------------------------------|---------------------------------|

G |---------------------------------|---------------------------------|
D |---------------------------------|---------------------------------|
A |---------------------------------|---------------------2--2-0-2/10-|
E |---------------------------------|---------------------------------|

The one it could have been
G |---------------------------------|---------------------------------|
D |---------------------------------|-------------------------7-5-----|
A |--10101010101010101010---2-0-5/12|---12121212121212121212--------7-|
E |---------------------------------|---------------------------------|

G |---------------------------------|---------------------------------|
D |---------------------------------|---------------------------------|
A |---7-7-7-7-7-7-7-7-7-7---7-5-----|---------------------------------|
E |-------------------------------0-|---0-0-0-0-0-0-0-0-0-0-0-0-0-0-0-|

G |----------------------------------|---------------------------------|
D |*---------------------------------|---------------------------------|
A |*---------------------------------|---------------------------------|
E |--6-6-6-6-6-6-6-6-6-6-6-6-6-6-6-6-|-5-5-5-5-5-5-5-5-5-5-5-5-5-5-5-5-|

G |---------------------------------|----------------------------------|
D |---------------------------------|---------------------------------*|
A |---------------------------------|---------------------------------*|
E |-5-5-5-5-5-5-5-5-5-5-5-5-5-5-5-5-|-7-7-7-7-7-7-7-7-7-7-7-7-7-7-7-7--|

G |---------------------------------|---------------------------------|
D |---------------------------------|---------------------------------|
A |-------------------------2-0-2/10|--10101010101010101010---2-0-2/12|
E |-0-0-0-0-0-0-0-0-0-0-0-0---------|---------------------------------|

G |---------------------------------|---------------------------------|
D |-------------------------7-5-----|---------------------------------|
A |---12121212121212121212--------7-|---7-7-7-7-7-7-7-7-7-7---7-5-----|
E |---------------------------------|-------------------------------0-|

G |---------------------------------|---------------------------------|
D |---------------------------------|---------------------------------|
A |-------------------------2-2-----|-------------------------0-2-----|
E |---0-0-0-0-0-0-0-0-0-0---------3-|---3-3-3-3-3-3-3-3-3-3---------5-|

G |---------------------------------|---------------------------------|
D |-------------------------7-5-----|---------------------------------|
A |-------------------------------7-|---7-7-7-7-7-7-7-7---------------|
E |---5-5-5-5-5-5-5-5-5-5-----------|-------------------------0/5-3-0-|

G |---------------------------------|
D |---------------------------------|
A |---------------------------------|
E |-0-0-0-0-0-0-0-0-0-0-0-0-0-0-0-0-|

END VERSE:
G |----------------------------------|---------------------------------|
D |*---------------------------------|---------------------------------|
A |*-7-7-7-7-7-7-7-7-5-5-5-5---------|---------5-5-5-5-5-5-5-5-5-5-5-5-|
E |--------------------------7-7-7-7-|-8-8-8-8-------------------------|

G |---------------------------------|----------------------------------|
D |---------------------------------|---------------------------------*|
A |-7-7-7-7-5-5-5-5-5-5-5-5---------|---------5-5-5-5-5-5-5-5-5-5-5-5-*|
E |-------------------------7-7-7-7-|-8-8-8-8--------------------------|

G |---------------------------------|---------------------------------|
D |---------------------------------|---------------------------------|
A |-7-7-7-7-5-5-5-5-5-5-5-5---------|---------5-5-5-5-5-5-5-5-5-5-5-5-|
E |-------------------------7-7-7-7-|-8-8-8-8-------------------------|

G |---------------------------------|---------------------------------|
D |---------------------------------|---------------------------------|
A |-7-7-7-7-5-5-5-5-5-5-5-5---------|---------5-5-5-5-5-5-5-5-5-5-5-0-|
E |-------------------------7-7-7-7-|-8-8-8-8-------------------------|

END CHORUS:
G |---------------------------------|---------------------------------|
D |---------------------------------|---------------------------------|
A |-5-5-5-5-5-5-5-5-5-5-5-5-5-5-5-5-|-5-5-5-5-5-5-5-5-5-5-5-5-5-5-5-5-|
E |---------------------------------|---------------------------------|

G |---------------------------------|---------------------------------|
D |---------------------------------|---------------------------------|
A |-5-5-5-5-5-5-5-5-5-5-5-5-5-5-5-5-|-5-5-5-5-5-5-5-5-5-5-5-5-5-\\\\\-|
E |---------------------------------|---------------------------------|

G |----------------------------------|----------------------------------|
D |*---------------------------------|---------------------------------*|
A |*-5-5-5/7---7-7---3-3-3/5---5-5---|---------------------------------*|
E |----------------------------------|-7-7-7-6---6-6---5-5-5-3---3-3----|

G |---------------------------------|---------------------------------|
D |---------------------------------|---------------------------------|
A |-5-5-5-5-5-5-5-5-5-5-5-5-5-5-5-5-|-5-5-5-5-5-5-5-5-5-5-5-5-5-5-5-5-|
E |---------------------------------|---------------------------------|

G |---------------------------------|----------------------------------|---|
D |---------------------------------|----------------------------------|---|
A |-5-5-5-5-5-5-5-5-5-5-5-5-5-5-5-5-|----------------------------------|-5-|
E |---------------------------------|-7-7-7-7-6-6-6-6-5-5-5-5-/3-3-3-1-|---|

Transcribed by Brian Camp
E-mail: cambrian@vianet.net.au
Добавлено: 20.10.2013
Другие материалы по этой песне:
  • Аккорды и текст

Страница создана 15.06.2012
http://primanota.ru/midnight-oil/best-of-both-worlds-chords.htm
Привет, Гость.
Предлагаем пройти революционный курс по гитаре.
Подарок от PrimaNota.Ru, забирай!