PrimaNota.ru - самый крупный в мире бесплатный архив песенных текстов, аккордов, табулатур и нот


Midnight Oil - Back On The Borderline - текст песни, бас-таба, видео

Регистрация Запомнить меня
Войти через:  Facebook Google Twitter Vk Yandex Mail.ru

Midnight Oil - Back On The Borderline - текст песни, бас-таба, видео

Печатать
Просмотров: 120
Авторы музыки: Andrew James, Peter Garrett, Rob Hirst

BACK ON THE BORDERLINE

James/Garrett/Hirst
Album : Head Injuries
Bass : Andrew James

INTRO:
G |---------------------------------|---------------------------------|
D |---------------------------------|---------------------------------|
A |-2-2-2-2-2-2-2-2-2-2-2-2-2-2-2-0-|-2-2-2-0-2-2-2-0-2-2-2-2-2-2-2-2-|
E |---------------------------------|---------------------------------|

G |---------------------------------|---------------------------------|
D |-7-7-7-----------5-5-5-----------|-7-7-7-----------5-5-5-----------|
A |-------7---7-7---------5---5-5---|-------7---7-7---------5---5-5---|
E |---------------0---------------0-|---------------0---------------0-|

VERSE:
From the bar to the bedroom
G |----------------------------------|----------------------------------|
D |*---------------------------------|-7-7-7-----------5-5-5-----------*|
A |*---4-7-----------------5---5-5---|-------7---7-7---------5---5-5---*|
E |--5-----0-0-0-0-0-3-3-3---------0-|---------------0---------------0--|

BRIDGE:
And sometimes when that mirror shows
G |---------------------------------|---------------------------------|
D |---------------------------------|---------------------------------|
A |---------------------------------|---------------------------------|
E |-1-----1-1-----1-1-----1-1-----1-|-0-----0-0-----0-5-----5-5---5-3-|

signatures of nightmares
G |---------------------------------|---------------------------------|
D |---------------------------------|-----------------2-----2-2---2-2-|
A |-------------------------------0-|-2-----2-2-----2-----------------|
E |-1-----1-1-----1-1-----1-1-------|---------------------------------|

G |---------------------------------|
D |---------------------------------|
A |-4-4-4-4-4-4-4-------------------|
E |---------------0-2-2---0-2-0-2-0-|

CHORUS:
Bor-der-line..........................................Yes I'm back on the
G |---------------------------------|---------------------------------|
D |---------------------------------|---------------------------------|
A |-2-2-2-2-2-2-2-2-2-2-2-2-2-2-2-2-|-------------------------------0-|
E |---------------------------------|-0-0-0-0-0-0-0-0-5-5---5-2-2-2---|

Bor-der-line..........................................
G |---------------------------------|---------------------------------|
D |---------------------------------|---------------------------------|
A |-2-2-2-2-2-2-2-2-2-2-2-2-2-2-2-2-|---------------------------------|
E |---------------------------------|-0-0-0-0-0-0-0-0-5-5-5-5-2-2-2-2-|

PRE-VERSE 2:
G |---------------------------------|---------------------------------|
D |-7-7-7-----------5-5-5-----------|-7-7-7-6---6-6-6-5-4-------------|
A |-------7---7-7---------5---5-5---|---------------------7-5---5-5---|
E |---------------0---------------0-|---------------------------------|

VERSE

BRIDGE 2:
And sometimes when that magic
G |---------------------------------|---------------------------------|
D |---------------------------------|---------------------------------|
A |---------------------------------|-------------3-2-----------------|
E |-1-----1-1-----1-1-----1-1-----1-|-0-----0-0-------5-----5-5---5-3-|

in retrospect that diamond day
G |---------------------------------|---------------------------------|
D |---------------------------------|-----------------------------2-4-|
A |-------------------------------0-|-2-----2-2/5-----7---------------|
E |-1-----1-1-----1-1-----1-1-------|-------------------0-0-0-0-0-----|

And sometimes when a thousand voices
G |---------------------------------|---------------------------------|
D |-5-5-5-5-5-5-5-5-5-5-5-5-5-5-5-5-|-4-4-4-4-4-4-4-4-----------------|
A |---------------------------------|-----------------2-2-2-2-2-2-2-2-|
E |---------------------------------|---------------------------------|

a saint in any form
G |---------------------------------|---------------------------------|---|
D |-5-5-5-5-5-5-5-5-5-5-5-5-5-5-5-5-|---------------------------------|---|
A |---------------------------------|-4-4-4-4-4-4-4-4-----------------|---|
E |---------------------------------|-----------------0-2-2-2-2-2-2-2-|-2-|

CHORUS 2:
G |---------------------------------|---------------------------------|
D |---------------------------------|---------------------------------|
A |-2-2-2-2-2-2-2-2-2-2-2-2-2-2-2-2-|---------------------------------|
E |---------------------------------|-0-0-0-0-0-0-0-0-5-5-5-5-2-2-2-2-|

G |---------------------------------|---------------------------------|
D |---------------------------------|---------------------------------|
A |-2-2-2-2-2-2-2-0-2-0-2-2-2-0-2-2-|---------------------------------|
E |---------------------------------|-0-0-0-0-0-0-0-0-5-5-5-5-2-2-2-2-|

INTERLUDE/HEAVY GUITAR:
G |----------------------------------|---------------------------------|
D |*---------------------------------|--------------------------------*|
A |*-2-2-2-2---2-2-2-2-2-2-2---2-2-2-|--------------------------------*|
E |----------------------------------|-0-0-0-0---0-0-0-5-5-5-5-2-2-2---|

G |---------------------------------|-----------------2-2-2-2---------|
D |---------------------------------|-2-2-2-2---2-2-2---------4-4-4---|
A |-2-2-2-2---2-2-2-2-2-2-2---2-2-2-|---------------------------------|
E |---------------------------------|---------------------------------|

G |---------------------------------|---------------------------------|
D |---------------------------------|---------------------------------|
A |-2-2-2-2-2-2-2-2-2-2-2-2-2-2-2-2-|---------------------------------|
E |---------------------------------|-0-0-0-0-0-0-0-0-5-5-5-5-2-2-2-2-|

G |---------------------------------|-----------------2-2-2-2---------|
D |---------------------------------|-2-2-2-2-2-2-2-2---------4-4-4---|
A |-2-2-2-2-2-2-2-2-2-2-2-2-2-2-2-2-|-------------------------------4-|
E |---------------------------------|---------------------------------|

END CHORUS:
Bor-der-line........................................Yes I'm back on the
G |---------------------------------|---------------------------------|
D |---------------------------------|---------------------------------|
A |-2-2-2-2-2-2-2-2-2-2-2-2-2-2-2-2-|---------------------------------|
E |---------------------------------|-0-0-0-0-0-0-0-0-5-5-5-5-2-2-2-2-|

Bor-der-line etc.
G |---------------------------------|---------------------------------|
D |---------------------------------|---------------------------------|
A |-2-2-2-2-2-2-2-0-2-2-2-2-2-2-2-2-|---------------------------------|
E |---------------------------------|-0-0-0-0-0-0-0-0-5-5-5-5-2-2-2-2-|

G |----------------------------------|----------------------------------|
D |*-------------------------0-0-0-0-|-2-2-2-2-2-2-2-2-----------------*|
A |*-2-2-2-2-2-2-2-2-4-4-4-4---------|---------------------------------*|
E |----------------------------------|-----------------5-5-5-5-2-2-2-2--|

OUTRO:
G |---------------------------------|---------------------------------|
D |---------------------------------|---------------------------------|
A |---------------------------------|---------------0-2-2-2-2-2-2-2-2-|
E |-3-----3-3-3-3-3-3-----3-3-3-3-3-|-2-----2-2-2-2-------------------|

G |---------------------------------|---|
D |-5-5-5-5-5-5-5-4-2-2-2-2-2-2-2-2-|---|
A |---------------------------------|-2-|
E |---------------------------------|---|

Transcribed by Brian Camp
E-mail: cambrian@vianet.net.au
Добавлено: 03.02.2014
Другие материалы по этой песне:
  • Аккорды и текст

Страница создана 30.03.2012
http://primanota.ru/midnight-oil/back-on-the-borderline-chords.htm
Привет, Гость.
Предлагаем пройти революционный курс по гитаре.
Подарок от PrimaNota.Ru, забирай!