PrimaNota.ru - самый крупный в мире бесплатный архив песенных текстов, аккордов, табулатур и нот


The Midnight Ghost Train - A Passing Moment Of Madness - таба, видео

Регистрация Запомнить меня
Войти через:  Facebook Google Twitter Vk Yandex Mail.ru

The Midnight Ghost Train - A Passing Moment Of Madness - таба, видео

Печатать
Просмотров: 145
-------------------------------------------------------------------------------
         A PASSING MOMENT OF MADNESS - The Midnight Ghost Train
-------------------------------------------------------------------------------
Tabbed by:MilesAK
E-mail:MilesAK@hotmail.co.uk

Tuning: Drop C (CGCFAD)

On the intro, he literally just puts the gain right up and wobbles his guitar around until the first riff...

Intro/Riff:

d|----------------------------------------------------------------------------------------------------|
A|----------------------------------------------------------------------------------------------------|
F|---------------------10-----------------------12-10--------------------10--------------12p10----10--|
C|-----10h12-12-121212----12----10h12-12-121212----------10h12-12-121212----12-----10h12-12----12---12|
G|-0-0----------------------0-0----------------------0-0-----------------------0-0--------------------|
C|-0-0----------------------0-0----------------------0-0-----------------------0-0--------------------|

d|------------------------------------------------------------------------------------------------|
A|------------------------------------------------------------------------------------------------|
F|---------------------10-----------------------12-10--------------------10--------------12b------|(x4)
C|-----10h12-12-121212----12----10h12-12-121212----------10h12-12-121212----12-----10h12-12b------|
G|-0-0----------------------0-0----------------------0-0-----------------------0-0----------------|
C|-0-0----------------------0-0----------------------0-0-----------------------0-0----------------|

After he's played that 4 times, he just mutes the twelfth frets and strums like crazy and
 occasionally slips
onto the open strings. Just listen to the song and you'll know what I mean
Riff 2 (after mutes): 
                                                   x x
d|---------------------------------------------------------------------------|
A|---------------------------------------------------------------------------|
F|---------------------------------------------------------------------------|
C|--------------------------3----------------------3-3-----------------------|(x4) (I think)
G|---------5p3p0-3-5~p0-3p0---5---5p3p0-3-5~p0-3p0-3-3-----------------------|
C|---12\-0----------------------0------------------3-3-----------------------|

d|---------------------------------------------------------------------------|
A|---------------------------------------------------------------------------|
F|---------------------------------------------------------------------------|
C|---------------------------------------------------------------------------|
G|-0-0-5-3-0-0-000-3-5-0-0-5-3-0-0-000-7-5-----------------------------------|(x4)
C|-0-0-5-3-0-0-000-3-5-0-0-5-3-0-0-000-7-5-----------------------------------|

d|---------------------------------------------------------------------------------------|
A|---------------------------------------------------------------------------------------|
F|---------------------------------------------------------------------------------------|
C|-----------------10-12--------------10h12p10h12p10h12p10h12p10h12p10h12p10h12p10h12~---|
G|-0-0-5-3-0-0-000-10-12-----------------------------------------------------------------|
C|-0-0-5-3-0-0-000-10-12-12~~~~----------------------------------------------------------|

Verse:

D|---------------------------------------------------------------------------|
A|---------------------------------------------------------------------------|
F|---------------------------------------------------------------------------|
C|---------------------------------------------------------------------------|(x4)
G|---------------------------------------------------------------------------|
C|-15\-0-(Let ring out)------------------------------------------------------|

d|---------------------------------------------------------------------------|
A|---------------------------------------------------------------------------|
F|---------------------------------------------------------------------------|
C|-------6-6-6-6-6-6-6-6-5-5-5-5-5-------------------------------------------|
G|-------6-6-6-6-6-6-6-6-5-5-5-5-5-------------------------------------------|
C|-10h12-6-6-6-6-6-6-6-6-5-5-5-5-5-------------------------------------------|

d|---------------------------------------------------------------------------|
A|---------------------------------------------------------------------------|
F|---------------------------------------------------------------------------|
C|---------------3-5---------------6-5---------------------------------------|(x4)
G|---------------3-5---------------6-5---------------------------------------|
C|-0-0-353-0-000-3-5-0-0-353-0-000-6-5---------------------------------------|

d|---------------------------------------------------------------------------|
A|---------------------------------------------------------------------------|
F|---------------------------------------------------------------------------|
C|---------------------------------------------------------------------------|
G|---------------10-12-------------------------------------------------------|
C|-0-0-353-0-000-10-12-10h12p10h12(Just keep going then shred 12)------------|

Solo:
                                                               x
d|----------------------------------------------------------------------------------------------------|
A|---------------------------------------13--13-------------------------------------------------------|
F|----------------10-------12p10-12b~~-12--12-------10h12p10-------10h12p10------------10h12p10-12b---|
C|10h12-12-121212----12------------------------12~----------10-12----------10-12-10h12--------------12|
G|----------------------------------------------------------------------------------------------------|
C|-----------------------0----------------------------------------------------------------------------|

d|---------------------------------------------------------------------------|
A|---------------------------------------------------------------------------|
F|---------------------------------------------------------------------------|
C|-----3h5p3-5b~~~p3---------------------------------------------------------|
G|-3h5---------------5~------------------------------------------------------|
C|---------------------------------------------------------------------------|

Structure:
Riff 1
Riff 2
Verse
Solo
Verse 
Riff 1 (And at the ending he just freaks out on the same notes he's been using all song)



************************************

| /   slide up
| \   slide down
| h   hammer-on
| p   pull-off
| ~   vibrato
| +   harmonic
| x   Mute note
| b   Bend
| pb  Pre-bend
| br  Bend release
| pbr Pre-bend release
| brb Bend release bend

************************************
Добавлено: 05.07.2015
Другие материалы по этой песне:
  • Аккорды и текст

Страница создана 05.07.2015
http://primanota.ru/midnight-ghost-train/passing-moment-of-madness-chords.htm
Привет, Гость.
Предлагаем пройти революционный курс по гитаре.
Подарок от PrimaNota.Ru, забирай!