PrimaNota.ru - самый крупный в мире бесплатный архив песенных текстов, аккордов, табулатур и нот


The Midnight Ghost Train - Gladstone - таба, видео

Регистрация Запомнить меня
Войти через:  Facebook Google Twitter Vk Yandex Mail.ru

The Midnight Ghost Train - Gladstone - таба, видео

Печатать
Просмотров: 136
-------------------------------------------------------------------------------
                      Gladstone - Midnight Ghost Train
-------------------------------------------------------------------------------
Tabbed by: MilesAK
E-mail: MilesAK@hotmail.co.uk

This is not an unsigned band. It is a relatively unknown one, however. To find tracks by this band, simply look on the Youtube page for Napalm Records...

http://www.themidnightghosttrain.com/

https://www.facebook.com/themidnightghosttrain

www.last.fm/music/The+Midnight+Ghost+Train

Tuning: Drop C (CGCFAD)

Intro:
(Let ring out. Riff playing in background)
D|---------------------------------------------------------------------------|
A|---------------------------------------------------------------------------|
F|---------------------------------------------------------------------------|
C|---------------------------------------------------------------------------|
G|-0-------------------------------------------------------------------------|
C|-0-------------------------------------------------------------------------|
                                                               x x x x 
D|---------------------------------------------------------------------------|
A|---------------------------------------------------------------------------|
F|---------------------------------------------------------------------------|
C|---------3---3-5~p3-5-5-55-6\5-3-5------------3---3-5~p3-5-5-6-6-3-3-------|(Played 3 times)
G|-----3-5---5-----------------------5------3-5---5------------6-6-3-3-------|
C|-0-0----------------------------------0-0--------------------6-6-3-3-------|

Riff/Bridge:

D|-------------------------------------------------------------------------------|
A|-------------------------------------------------------------------------------|
F|-------------------------------------------------------------------------------|
C|-------------------------------------------------------------------------------|(x2)
G|-------------------------------------------------------------------------------|
C|-13--13-12-10-12\-3/-13-13-12-10-12\-3/-13-13-12-10-12\-3/--8-8-8-8-10-10-10-10|

D|---------------------------------------------------------------------------|
A|---------------------------------------------------------------------------|
F|-7p5h7~~~~~~~~~--7p5h7~~~~~~~~~~------7h5p7~~~~~~~~~--7p5h7~~~~~~~~~-------|
C|---------------------------------------------------------------------------|
G|---------------------------------------------------------------------------|
C|---------------------------------------------------------------------------|

Verse:

D|---------------------------------------------------------------------------|
A|---------------------------------------------------------------------------|
F|-7p5h7-7-7-7-7-7-7-7-7-7-7-7-7-7-7-7-7p5h7-7-7-7-7-7-7-7-7-7-7-7-7-7-7-7---|
C|---------------------------------------------------------------------------|(x2)
G|---------------------------------------------------------------------------|
C|---------------------------------------------------------------------------|

D|---------------------------------------------------------------------------|
A|-----------6-6-6-6-8-8-8-8-8bp6-----------6-6-6-6-8-8-8-8-8bp6-------------|
F|-7p5h7-7-7----------------------7-5-7-7-7----------------------7-----------|
C|---------------------------------------------------------------------------|(x2)
G|---------------------------------------------------------------------------|
C|---------------------------------------------------------------------------|

Breakdown (After second verse):
   x   x x x  x 
D|---------------------------------------------------------------------------|
A|---------------------------------------------------------------------------|
F|---------------------------------------------------------------------------|
C|--------------7-7-7-7-7-7-7-7-7-7-7-7-7-7-7-7------------------------------|(x2)
G|-8---8p7-7--3-5-5-5-5-5-5-5-5-5-5-5-5-5-5-5-5------------------------------|
C|---------------------------------------------------------------------------|
   x   x x  x
D|---------------------------------------------------------------------------|
A|---------------------------------------------------------------------------|
F|---------------------------------------------------------------------------|
C|----------------7-7-7-7-7-7-7-7-7-7-7-7-7-7-7-7----------------------------|
G|-8---8/10-10--3-5-5-5-5-5-5-5-5-5-5-5-5-5-5-5-5----------------------------|
C|---------------------------------------------------------------------------|
                           x  x  x  x
D|---------------------------------------------------------------------------|
A|---------------------------------------------------------------------------|
F|---------------------------------------------------------------------------|
C|---------------------------------------------------------------------------|(x3)
G|-10h12-12-12-10h12-12-12-------------------8-------------------------------|
C|-------------------------10-12-12-12-10h12---12----------------------------|

D|--------------------------------------------------------------------------------|
A|--------------------------------------------------------------------------------|
F|--------------------------------------------------------------------------------|
C|-3-3-3-3-3-3-3-3-5-5-5-5-5-5-5-5------------------------------------------------|
G|-3-3-3-3-3-3-3-3-5-5-5-5-5-5-5-5-------------------------------------------8----|(x3)
C|-3-3-3-3-3-3-3-3-5-5-5-5-5-5-5-5-10h12-12-12-10h12-12-12-10h12-12-12-10h12---12-|

D|---------------------------------------------------------------------------|
A|---------------------------------------------------------------------------|
F|---------------------------------------------------------------------------|
C|---------------------------------------------------------------------------|(x4)
G|-------------------------------------------8-------------------------------|
C|-10h12-12-12-10h12-12-12-10h12-12-12-10h12---12----------------------------|

This song has no chorus or solo. It's a great band though and well worth a listen. Hope this helps. :)

Structure.

Intro
Riff
verse
Riff
verse
Breakdown
Riff
(Ends on "7p5h7")


************************************

| /   slide up
| \   slide down
| h   hammer-on
| p   pull-off
| ~   vibrato
| +   harmonic
| x   Mute note
| b   Bend
| pb  Pre-bend
| br  Bend release
| pbr Pre-bend release
| brb Bend release bend

************************************
Добавлено: 05.07.2015
Другие материалы по этой песне:
  • Аккорды и текст

Страница создана 05.07.2015
http://primanota.ru/midnight-ghost-train/gladstone-chords.htm
Привет, Гость.
Предлагаем пройти революционный курс по гитаре.
Подарок от PrimaNota.Ru, забирай!