PrimaNota.ru - самый крупный в мире бесплатный архив песенных текстов, аккордов, табулатур и нот


The Midnight Ghost Train - Bc Trucker - таба, видео

Регистрация Запомнить меня
Войти через:  Facebook Google Twitter Vk Yandex Mail.ru

The Midnight Ghost Train - Bc Trucker - таба, видео

Печатать
Просмотров: 137
-------------------------------------------------------------------------------
                   BC TRUCKER - The Midnight Ghost Train
-------------------------------------------------------------------------------
Tabbed by:MilesAK
E-mail:MilesAK@hotmail.co.uk

Tuning: Drop C

Intro:

Note, on a lot of these parts, it sounds incredibly layered and heavy. However, he isn't 
playing chords,
it's just because the bass seems to be playing the exact same thing.

d|---------------------------------------------------------------------------|
A|---------------------------------------------------------------------------|
F|---------------------------------------------------------------------------|
C|---------------------------------------------------------------------------|(x3
G|---------------------------------------------------------------------------|
C|-10h12-12-12-10h12-12-12-10h12-12-12-10h12-15\12---------------------------|
                           x
d|---------------------------------------------------------------------------|
A|---------------------------------------------------------------------------|
F|---------------------------------------------------------------------------|
C|----------------------------10-10-10h12-12---------------------------------|
G|---------------------------------------------------------------------------|
C|-10h12-12-12-10h12-12-12-12------------------------------------------------|

d|---------------------------------------------------------------------------|
A|---------------------------------------------------------------------------|
F|----------------------------12-10~-----------------------------------------|
C|----------------------------12-10~-10h12p12--------------------------------|(x3)
G|---------------------------------------------------------------------------|
C|-12-12-12-12-12-12-12-12-12------------------------------------------------|

d|---------------------------------------------------------------------------|
A|---------------------------------------------------------------------------|
F|---------------------------------------------------------------------------|
C|----------------------------10-10-10h12-12---------------------------------|
G|---------------------------------------------------------------------------|
C|-12-12-12-12-12-12-12-12-12------------------------------------------------|

d|---------------------------------------------------------------------------|
A|---------------------------------------------------------------------------|
F|---------------------------------------------------------------------------|
C|---------------------------------------------------------------------------|
G|---------------------------------------------------------------------------|
C|-12-12-12-12-12-12-12-12-12-12-12-12-12-12-10-10-12~-----------------------|

d|---------------------------------------------------------------------------|
A|---------------------------------------------------------------------------|
F|-------12-10---------------------------------------------------------------|
C|-------12-10------------------------10-10-10h12-12-------------------------|
G|---------------------------------------------------------------------------|
C|-10/12-------10/12~----------10/12-----------------------------------------|

Verse:

d|---------------------------------------------------------------------------|
A|---------------------------------------------------------------------------|
F|----------------12-10------------------------------------------------------|
C|----------------12-10-----------------10-10-10h12-12-----------------------|
G|---------------------------------------------------------------------------|
C|-10/12----10/12-------10/12~----10/12--------------------------------------|

d|-------------------------------------------------|-------------------------|
A|-------------------------------------------------|-------------------------|
F|-------------------------------------------------|-------------------------|
C|-------------------------------------------------|(x4)-10-10-10h12-12------|
G|-------------------------------------------------|-------------------------|
C|-12-12-12-12-12-12-12-12-12-12-12-12-12-12-10-12-|-------------------------|

Chorus:

d|----------------------------------------------|----------------------------|
A|----------------------------------------------|----------------------------|
F|----------------------------------------------|----------------------------|
C|----------------------------------------------|(x8)-10-10-10h12-12---------|
G|----------------------------------------------|----------------------------|
C|-10h12-12-12-15-12-12-12-10h12-12-12-10h12-15-|--------------------10/12---|

Solo:

d|----------------------------------------------------------------------------------------------|
A|----------------------------------------------------------------------------------------------|
F|-------------------------10-10-10-10-10-10-10-10-12-12-12-12-10-12-10-12b12-12-12-10----------|
C|-12-12-12-12-12-12-12-12-------------------------------------------------------------12-10----|
G|-------------------------------------------------------------------------------------------12-|
C|----------------------------------------------------------------------------------------------|

d|----------------------------------------------------------------------------------------------|
A|----------------------------------------------------------------------------------------------|
F|--------------------------------------------------------------------------------10------------|
C|----------------------------10-10-10-10-10-10-10-10-12-12-12-12-10-12-10-12b-12----12-12-12-12|
G|-10-12-12-12-12-12-12-12-12-------------------------------------------------------------------|
C|----------------------------------------------------------------------------------------------|

d|---------------------------------------------------------------------------|
A|---------------------------------------------------------------------------|
F|---------------------------------------------------------------------------|
C|-17~-15--------------------------------------------------------------------|(x2)
G|-------17-17-17-17-17-12h15-15-17-17-17-17-17------------------------------|
C|---------------------------------------------------------------------------|

At the end of the solo he replays the first bar of it and finishes on the 12b on the F string...

Breakdown:

d|---------------------------------------------------------------------------------------|
A|---------------------------------------------------------------------------------------|
F|---------------------------------------------------------------------------------------|
C|-10-10-10h12-12-10-12~--10~--7~--10~--10h12-12-12-12-12-12-12-12-12-12-12-12-12-12-12--|
G|---------------------------------------------------------------------------------------|
C|---------------------------------------------------------------------------------------|

d|---------------------------------------------------------------------------|
A|---------------------------------------------------------------------------|
F|---------------------------------------------------------------------------|
C|-10h12-12-12-12-12-12-12-------10h12-12-10-10-10---------------------------|
G|-------------------------10h12---------------------------------------------|
C|---------------------------------------------------------------------------|

(Then he just repeats the 10h12 12 12 12... a couple of times before finishing with that same
riff on the D string: 10 10 10h12 12)

Outro:

d|----------------------------------------------|-----------------------------|
A|----------------------------------------------|-----------------------------|
F|----------------------------------------------|-----------------------------|
C|----------------------------------------------|(x8)-10-10-10h12-10-12~------|
G|----------------------------------------------|-----------------------------|
C|-10h12-12-12-12-12-12-12-12-12-12-12-12-12-12-|-----------------------------|

This song is very repetitive. Well, MGT songs seem to be so, but every riff in the song 
should be in this
reasonably simple tab. Hope this helps. :)


************************************

| /   slide up
| \   slide down
| h   hammer-on
| p   pull-off
| ~   vibrato
| +   harmonic
| x   Mute note
| b   Bend
| pb  Pre-bend
| br  Bend release
| pbr Pre-bend release
| brb Bend release bend

************************************
Добавлено: 05.07.2015
Вам также может быть интересно:
Другие материалы по этой песне:
  • Аккорды и текст

Страница создана 05.07.2015
http://primanota.ru/midnight-ghost-train/bc-trucker-chords.htm
Привет, Гость.
Предлагаем пройти революционный курс по гитаре.
Подарок от PrimaNota.Ru, забирай!