PrimaNota.ru - самый крупный в мире бесплатный архив песенных текстов, аккордов, табулатур и нот


Midget Stu - Long Gone - аккорды и текст, таба, видео

Регистрация Запомнить меня
Войти через:  Facebook Google Twitter Vk Yandex Mail.ru

Midget Stu - Long Gone - аккорды и текст, таба, видео

Печатать
Просмотров: 129
Long Gone
Midget Stu



  Long Gone  by MIDGET STU
   music and lyrics by Bryan Hamill    

transcribed by CQYW66D@prodigy.com 

visit MIDGET STU at http://www.angelfire.com/ny/seanstuff/ 


D5               A5                G5
-------------------------------------------------------|
-------------------------------------------------------|
-------------------------------------------------------| 
12-----------------7-------------------5---------------| 
12-----------------5-------------------5---------------|
10-----------------5-------------------3---------------|





ORDER:
Riff 1 - no vocals
Riff 1 - humming
Riff 1 - play along w/ 1st verse
Riff 1 - play with humming (2x)
Riff 1 - play along w/ 2nd verse
Riff 1 - Play w/ chorus (strum harder)
Riff 1 - play w/ humming (2x)
Riff 1 - play w/ chorus (strum harder)
End riff twice (on 2nd guitar) while 1st guitar plays Riff 1


RIFF 1 
 same riff throughout the whole song (play with a heavier stroke on Chorus)

   D5  D5  D5  D5  D5  A5  A5  A5  A5  A5  G5  G5  G5  G5    G5            
E |---------------------------------------------------------------------|
B |---------------------------------------------------------------------|
G |---------------------------------------------------------------------| 
D |---------------------------------------------------------------------| 
A |---------------------------------------------------------------------|
E |----------------------------------------------------------0----------|

End Riff

E |---------------------------------------------------------------------|
B |---------------------------------------------------------------------|
G |---------------------------------------------------------------------| 
D |---------------------------------------------------------------------| 
A |---------------------------------------------------------------------|
E |---10-10-10--5-5-5--2-3--2-3-----------------------------------------|


Добавлено: 30.11.2013
Другие материалы по этой песне:
  • Аккорды и текст

Страница создана 17.06.2012
http://primanota.ru/midget-stu/long-gone-chords.htm
Привет, Гость.
Предлагаем пройти революционный курс по гитаре.
Подарок от PrimaNota.Ru, забирай!