PrimaNota.ru - самый крупный в мире бесплатный архив песенных текстов, аккордов, табулатур и нот


Middle Class Rut - Busy Bein Born - текст песни, таба, видео

Регистрация Запомнить меня
Войти через:  Facebook Google Twitter Vk Yandex Mail.ru

Middle Class Rut - Busy Bein Born - текст песни, таба, видео

Печатать
Просмотров: 172
If you like this tab please check me out on youtube :D username: thekidxz

Tuning: Drop D (E B G D A E) 

Intro
       Fade in, The note stays in the whole song.
Guitar 1
E|--------------------------------------------------------|
B|-7------------------------------------------------------|
G|--------------------------------------------------------|
D|--------------------------------------------------------|
A|--------------------------------------------------------|
E|--------------------------------------------------------|

 Verse 

Guitar 2
E|-------------------|
B|-------------------|
G|-------------------|
D|-4---4-----4---4---|
A|-4---4-----4---4---| Repeat 6x
E|-4---4-----4---4---|

E|---------------------------------------------------------|
B|---------------------------------------------------------| 1x
G|---------------------------------------------------------|
D|-7---7-----9---9-----4---4-----4---4-----7---7-----9---9-||-4---4-----4---4|
A|-5---5-----7---7-----4---4-----4---4-----5---5-----7---7-||-4---4-----4---4|
E|---------------------4---4-----4---4---------------------||-4---4-----4---4| 
                                                               Repeat 2 x
E|-------------------|
B|-------------------|
G|-------------------|
D|-4---4-----4---4---|
A|-4---4-----4---4---| Repeat 2x
E|-4---4-----4---4---|

E|----------------------------------------------------------|
B|----------------------------------------------------------|
G|----------------------------------------------------------|
D|-7---7-----9---9-----4---4-----4---4-----7---7-----9---9--|
A|-5---5-----7---7-----4---4-----4---4-----5---5-----7---7--|
E|---------------------4---4-----4---4----------------------| 1x

E|------------------|
B|------------------|
G|------------------|
D|-4---4-----4---4--|
A|-4---4-----4---4--| 1x
E|-4---4-----4---4--|

E|--------------------------------------------------------------------|
B|--------------------------------------------------------------------|
G|--------------------------------------------------------------------|
D|-4---4-----7---7-----9---9-----4---4-----4---4-----7---7-----9---9--|
A|-4---4-----5---5-----7---7-----4---4-----4---4-----5---5-----7---7--|
E|-4---4-------------------------4---4-----4---4----------------------| 1x

E|------------------|
B|------------------|
G|------------------|
D|-4---4-----4---4--|
A|-4---4-----4---4--| 2x
E|-4---4-----4---4--|

  Guitar 1
E|-------------|       |---12--17-17-17-17-14-12-12--------|
B|-------------|       |-----------------------------------|
G|-------------|       |-----------------------------------|
D|-4--4---2-4--|       |-7---------------------------7---9-|
A|-4--4---2-4--|       |-5---------------------------5---7-|
E|-4--4---2-4--| <--4x |-----------------------------------|
                     
   |                  E|-14--19-19-19-19-15-14-14--|
   |                  B|---------------------------|
   |                  G|---------------------------|
   |                  D|---------------------------|
   |                  A|---------------------------|
   |                  E|---------------------------|
   V                         |
                             |
GUITAR 2                     |
                   |    GUITAR 1              Guitar 2
E|-14-17-17-17-|   |  E|------------|      |-18-20-20-20-|  
B|-------------|   |  B|------------|      |-------------|
G|-------------|   |  G|------------|      |-------------|
D|-------------| 4x|  D|-4--4---2-4-| 6x   |-------------| 6x
A|-------------|   |  A|-4--4---2-4-|      |-------------|
E|-------------|   |  E|-4--4---2-4-|      |-------------|
                   |   


                       |---12--17-17-17-17-14-12-12--------|    
                       |-----------------------------------|
                       |-----------------------------------|
                       |-7---------------------------7---9-|
                       |-5---------------------------5---7-|
                       |-----------------------------------|
                     
                   E|-14--19-19-19-19-15-14-14--|
                   B|---------------------------|
                   G|---------------------------| 1x
                   D|---------------------------|
                   A|---------------------------|
                   E|---------------------------| 

GUITAR 1              Guitar 2
E|------------|      |-14-17-17-17-|  
B|------------|      |-------------| 
G|------------|      |-------------|
D|-4--4---2-4-| 2x   |-------------| 2x
A|-4--4---2-4-|      |-------------|
E|-4--4---2-4-|      |-------------|


Last Verse

E|----------------------------------------------------------------------------------|
B|----------------------------------------------------------------------------------|
G|----------------------------------------------------------------------------------|
D|-4-4-4-4-4-7-7-7-7-7-9-9-9-9-9-4-4-4-4-4--4-4-4-4-4-7-7-7-7-7-9-9-9-9-9-4-4-4-4-4-|
A|-4-4-4-4-4-5-5-5-5-5-7-7-7-7-7-4-4-4-4-4--4-4-4-4-4-5-5-5-5-5-7-7-7-7-7-4-4-4-4-4-|
E|-4-4-4-4-4---------------------4-4-4-4-4--4-4-4-4-4---------------------4-4-4-4-4-|
     2x

GUITAR 1              Guitar 2
E|------------|      |-18-20-20-20-|  
B|------------|      |-------------| 
G|------------|      |-------------|
D|-4--4---2-4-| 8x   |-------------| 8x
A|-4--4---2-4-|      |-------------|
E|-4--4---2-4-|      |-------------|

Outro

E|-------------------|
B|-------------------|
G|-------------------|
D|-4---4-----4---4---|
A|-4---4-----4---4---| Repeat 2x
E|-4---4-----4---4---|

E|-------------------------------------------------------------------------|
B|-------------------------------------------------------------------------|
G|-------------------------------------------------------------------------|
D|-7---7-----9---9-----4---4-----4---4-----7---7-----9---9--4---4-----4---4|
A|-5---5-----7---7-----4---4-----4---4-----5---5-----7---7--4---4-----4---4|
E|---------------------4---4-----4---4----------------------4---4-----4---4|
                Repeat 2x

Check me out on youtube :D 
username: Thekidxz
                                                               


Добавлено: 29.03.2012
Другие материалы по этой песне:
  • Аккорды и текст

Страница создана 29.03.2012
http://primanota.ru/middle-class-rut/busy-bein-born-chords.htm
Привет, Гость.
Предлагаем пройти революционный курс по гитаре.
Подарок от PrimaNota.Ru, забирай!