PrimaNota.ru - самый крупный в мире бесплатный архив песенных текстов, аккордов, табулатур и нот


Mickey 3d - Les Mots - таба, видео

Регистрация Запомнить меня
Войти через:  Facebook Google Twitter Vk Yandex Mail.ru

Mickey 3d - Les Mots - таба, видео

Печатать
Просмотров: 107
Авторы музыки: Mickaël Furnon
Авторы текста: Mickaël Furnon
	******************************************
			LES MOTS
	******************************************
		      (MICKEY 3D)



INTRO :
   G#m
   1 & 2 & 3 & 4 &   1 & 2 & 3 & 4 &  
e|-----------------|-----------------|
B|-----------------|-----------------|
G|-----------------|-----------------|
D|-----------------|-----------------|
A|-x-8-8-8-x-8-8-8-|-x-8-8-8-x-8-8-8-|
E|-x-6-6-6-x-6-6-6-|-x-6-6-6-x-6-6-6-|


VERSE 1 :
   Bb                F#      G#m       Bb                F#      G#m      
   1 & 2 & 3 & 4 &   1 & 2 & 3 & 4 &   1 & 2 & 3 & 4 &   1 & 2 & 3 & 4 &  
e|-----------------|-----------------|-----------------|-----------------|
B|-----------------|-----------------|-----------------|-----------------|
G|-----------------|-----------------|-----------------|-----------------|
D|-----------------|-----------------|-----------------|-----------------|
A|-x-8-8-8-x-8-8-8-|-x-4-4-4-x-6-6-6-|-x-8-8-8-x-8-8-8-|-x-4-4-4-x-6-6-6-|
E|-x-6-6-6-x-6-6-6-|-x-2-2-2-x-4-4-4-|-x-6-6-6-x-6-6-6-|-x-2-2-2-x-4-4-4-|

          tous les | mots que tu  dis|ais      je ne   | les  com-prenais  

   Bb                F#      G#m       Bb                F#      G#m      
   1 & 2 & 3 & 4 &   1 & 2 & 3 & 4 &   1 & 2 & 3 & 4 &   1 & 2 & 3 & 4 &  
e|-----------------|-----------------|-----------------|-----------------|
B|-----------------|-----------------|-----------------|-----------------|
G|-----------------|-----------------|-----------------|-----------------|
D|-----------------|-----------------|-----------------|-----------------|
A|-x-8-8-8-x-8-8-8-|-x-4-4-4-x-6-6-6-|-x-8-8-8-x-8-8-8-|-x-4-4-4-x-6-6-6-|
E|-x-6-6-6-x-6-6-6-|-x-2-2-2-x-4-4-4-|-x-6-6-6-x-6-6-6-|-x-2-2-2-x-4-4-4-|

   pas    tous les | mots se ressembl|aient  mais ça ne| te   res-semblait


COUPLET 2 :
   Bb                F#      G#m       Bb                F#      G#m      
   1 & 2 & 3 & 4 &   1 & 2 & 3 & 4 &   1 & 2 & 3 & 4 &   1 & 2 & 3 & 4 &  
e|-----------------|-----------------|-----------------|-----------------|
B|-----------------|-----------------|-----------------|-----------------|
G|-----------------|-x-3-3-3-x-4-4-4-|-x-6-6-6-x-6-6-6-|-x-3-3-3-x-4-4-4-|
D|-----------------|-x-4-4-4-x-6-6-6-|-x-8-8-8-x-8-8-8-|-x-4-4-4-x-6-6-6-|
A|-x-8-8-8-x-8-8-8-|-x-4-4-4-x-6-6-6-|-x-8-8-8-x-8-8-8-|-x-4-4-4-x-6-6-6-|
E|-x-6-6-6-x-6-6-6-|-x-2-2-2-x-4-4-4-|-x-6-6-6-x-6-6-6-|-x-2-2-2-x-4-4-4-|

   pas    tous les | mots se   modi|fiaient ts les mots| se   mo-quaient de

   Bb                F#      G#m       Bb                F#      G#m      
   1 & 2 & 3 & 4 &   1 & 2 & 3 & 4 &   1 & 2 & 3 & 4 &   1 & 2 & 3 & 4 &  
e|-----------------|-----------------|-----------------|-----------------|
B|-----------------|-----------------|-----------------|-----------------|
G|-x-6-6-6-x-6-6-6-|-x-3-3-3-x-4-4-4-|-x-6-6-6-x-6-6-6-|-x-3-3-3-x-4-4-4-|
D|-x-8-8-8-x-8-8-8-|-x-4-4-4-x-6-6-6-|-x-8-8-8-x-8-8-8-|-x-4-4-4-x-6-6-6-|
A|-x-8-8-8-x-8-8-8-|-x-4-4-4-x-6-6-6-|-x-8-8-8-x-8-8-8-|-x-4-4-4-x-6-6-6-|
E|-x-6-6-6-x-6-6-6-|-x-2-2-2-x-4-4-4-|-x-6-6-6-x-6-6-6-|-x-2-2-2-x-4-4-4-|

   moi    tous les | mots  m'ensorce|laient mais ts les| mots ne comptaient


PRE-CHORUS 1 :
   Em (fret. 0)                        Em (fret. 7)
   1 & 2 & 3 & 4 &   1 & 2 & 3 & 4 &   1 & 2 & 3 & 4 &   1 & 2 & 3 & 4 &  
e|-0---0---0---0-0-|---0-0-0---0-0-0-|-7-7-7-7-7-7-7-7-|-7-7-7-7-7-7-7-x-|
B|-0---0---0---0-0-|---0-0-0---0-0-0-|-8-8-8-8-8-8-8-8-|-8-8-8-8-8-8-8-x-|
G|-0---0---0---0-0-|---0-0-0---0-0-0-|-9-9-9-9-9-9-9-9-|-9-9-9-9-9-9-9-x-|
D|-2---2---2---2-2-|---2-2-2---2-2-2-|-9-9-9-9-9-9-9-9-|-9-9-9-9-9-9-9-x-|
A|-2---2---2---2-2-|---2-2-2---2-2-2-|-7-7-7-7-7-7-7-7-|-7-7-7-7-7-7-7-x-|
E|-0---0---0---0-0-|---0-0-0---0-0-0-|-----------------|-----------------|

   pas-haaaaaaaa


CHORUS :
   C                 B                 Em     
   1 & 2 & 3 & 4 &   1 & 2 & 3 & 4 &   1 & 2 & 3 & 4 &   1 & 2 & 3 & 4 &  
e|-----8---8-8-8-7-|---7-7-7---7-7-7-|-----0-------0---|-----0-------0---|
B|-----8---8-8-8-7-|---7-7-7---7-7-7-|-----0-------0---|-----0-------0---|
G|-----9---9-9-9-8-|---8-8-8---8-8-8-|-----0-------0---|-----0-------0---|
D|----10--101010-9-|---9-9-9---9-9-9-|-----2-------2---|-----2-------2---|
A|10------101010-9-|---9-9-9---9-9-9-|-2-------2-2---2-|---2---2---2---2-|
E|-8-------8-8-8-7-|---7-7-7---7-7-7-|-0-------0-0---0-|---0---0---0---0-|

          tous les | mots que j'atten|daiiiiiis

   C                 B                 Em     
   1 & 2 & 3 & 4 &   1 & 2 & 3 & 4 &   1 & 2 & 3 & 4 &   1 & 2 & 3 & 4 &  
e|-8-8-8-8-8-8-8-7-|---7-7-7---7-7-7-|-----0-------0---|-----0-------0---|
B|-8-8-8-8-8-8-8-7-|---7-7-7---7-7-7-|-----0-------0---|-----0-------0---|
G|-9-9-9-9-9-9-9-7-|---8-8-8---8-8-8-|-----0-------0---|-----0-------0---|
D|10101010101010-7-|---9-9-9---9-9-9-|-----0-------0---|-----0-------0---|
A|10101010101010-7-|---9-9-9---9-9-9-|-0-------0-0---0-|---0---0---0---0-|
E|-8-8-8-8-8-8-8-7-|---7-7-7---7-7-7-|-0-------0-0---0-|---0---0---0---0-|

             je ne | les entendais   | paaaas

   C                 B                 Em     
   1 & 2 & 3 & 4 &   1 & 2 & 3 & 4 &   1 & 2 & 3 & 4 &   1 & 2 & 3 & 4 &  
e|-8-8-8-8-8-8-8-7-|---7-7-7---7-7-7-|-----0-------0---|-----0-------0---|
B|-8-8-8-8-8-8-8-7-|---7-7-7---7-7-7-|-----0-------0---|-----0-------0---|
G|-9-9-9-9-9-9-9-7-|---8-8-8---8-8-8-|-----0-------0---|-----0-------0---|
D|10101010101010-7-|---9-9-9---9-9-9-|-----0-------0---|-----0-------0---|
A|10101010101010-7-|---9-9-9---9-9-9-|-0-------0-0---0-|---0---0---0---0-|
E|-8-8-8-8-8-8-8-7-|---7-7-7---7-7-7-|-0-------0-0---0-|---0---0---0---0-|

          parfois  | tu t'en  approch|ais d'un bout de voix

   C                 B                 Em     
   1 & 2 & 3 & 4 &   1 & 2 & 3 & 4 &   1 & 2 & 3 & 4 &   1 & 2 & 3 & 4 &  
e|-8-8-8-8-8-8-8-7-|---7-7-7---7-7-7-|-----0-------0---|-----0-------0---|
B|-8-8-8-8-8-8-8-7-|---7-7-7---7-7-7-|-----0-------0---|-----0-------0---|
G|-9-9-9-9-9-9-9-7-|---8-8-8---8-8-8-|-----0-------0---|-----0-------0---|
D|10101010101010-7-|---9-9-9---9-9-9-|-----0-------0---|-----0-------0---|
A|10101010101010-7-|---9-9-9---9-9-9-|-0-------0-0---0-|---0---0---0---0-|
E|-8-8-8-8-8-8-8-7-|---7-7-7---7-7-7-|-0-------0-0---0-|---0---0---0---0-|

           mais ta |langue n'en voulait |paaaas

 
POST-CHORUS :
   Bb                F#      G#m       Bb                F#      G#m      
   1 & 2 & 3 & 4 &   1 & 2 & 3 & 4 &   1 & 2 & 3 & 4 &   1 & 2 & 3 & 4 &  
e|-x-6-6-6-x-6-6-6-|-x-2-2-2-x-2-2-2-|-x-6-6-6-x-6-6-6-|-x-2-2-2-x-2-2-2-|
B|-x-6-6-6-x-6-6-6-|-x-2-2-2-x-2-2-2-|-x-6-6-6-x-6-6-6-|-x-2-2-2-x-2-2-2-|
G|-x-6-6-6-x-6-6-6-|-x-3-3-3-x-4-4-4-|-x-6-6-6-x-6-6-6-|-x-3-3-3-x-4-4-4-|
D|-x-8-8-8-x-8-8-8-|-x-4-4-4-x-6-6-6-|-x-8-8-8-x-8-8-8-|-x-4-4-4-x-6-6-6-|
A|-x-8-8-8-x-8-8-8-|-x-4-4-4-x-6-6-6-|-x-8-8-8-x-8-8-8-|-x-4-4-4-x-6-6-6-|
E|-x-6-6-6-x-6-6-6-|-x-2-2-2-x-4-4-4-|-x-6-6-6-x-6-6-6-|-x-2-2-2-x-4-4-4-|

   tous les moooots 

   Bb                F#      G#m       Bb                F#      G#m      
   1 & 2 & 3 & 4 &   1 & 2 & 3 & 4 &   1 & 2 & 3 & 4 &   1 & 2 & 3 & 4 &  
e|-x-6-6-6-x-6-6-6-|-x-2-2-2-x-2-2-2-|-x-6-6-6-x-6-6-6-|-x-2-2-2-x-2-2-2-|
B|-x-6-6-6-x-6-6-6-|-x-2-2-2-x-2-2-2-|-x-6-6-6-x-6-6-6-|-x-2-2-2-x-2-2-2-|
G|-x-6-6-6-x-6-6-6-|-x-3-3-3-x-4-4-4-|-x-6-6-6-x-6-6-6-|-x-3-3-3-x-4-4-4-|
D|-x-8-8-8-x-8-8-8-|-x-4-4-4-x-6-6-6-|-x-8-8-8-x-8-8-8-|-x-4-4-4-x-6-6-6-|
A|-x-8-8-8-x-8-8-8-|-x-4-4-4-x-6-6-6-|-x-8-8-8-x-8-8-8-|-x-4-4-4-x-6-6-6-|
E|-x-6-6-6-x-6-6-6-|-x-2-2-2-x-4-4-4-|-x-6-6-6-x-6-6-6-|-x-2-2-2-x-4-4-4-|

   tous les moooots-oh-oh


VERSE 3 :
   Bb                F#      G#m       Bb                F#      G#m      
   1 & 2 & 3 & 4 &   1 & 2 & 3 & 4 &   1 & 2 & 3 & 4 &   1 & 2 & 3 & 4 &  
e|-----------------|-----------------|-----------------|-----------------|
B|-----------------|-----------------|-----------------|-----------------|
G|-----------------|-----------------|-----------------|-----------------|
D|-----------------|-----------------|-----------------|-----------------|
A|-x-8-8-8-x-8-8-8-|-x-4-4-4-x-6-6-6-|-x-8-8-8-x-8-8-8-|-x-4-4-4-x-6-6-6-|
E|-x-6-6-6-x-6-6-6-|-x-2-2-2-x-4-4-4-|-x-6-6-6-x-6-6-6-|-x-2-2-2-x-4-4-4-|

          tous les | mots que tu  dis|ais      je ne   | les   re-tenais  

   Bb                F#      G#m       Bb                F#      G#m      
   1 & 2 & 3 & 4 &   1 & 2 & 3 & 4 &   1 & 2 & 3 & 4 &   1 & 2 & 3 & 4 &  
e|-----------------|-----------------|-----------------|-----------------|
B|-----------------|-----------------|-----------------|-----------------|
G|-----------------|-----------------|-----------------|-----------------|
D|-----------------|-----------------|-----------------|-----------------|
A|-x-8-8-8-x-8-8-8-|-x-4-4-4-x-6-6-6-|-x-8-8-8-x-8-8-8-|-x-4-4-4-x-6-6-6-|
E|-x-6-6-6-x-6-6-6-|-x-2-2-2-x-4-4-4-|-x-6-6-6-x-6-6-6-|-x-2-2-2-x-4-4-4-|

   pas   si tu les | avais     murmur|-é  j'aurais peut|-être ouvert les bras



  ---------  |  ------------  |  -------  |  -------  |
  VERSE 2    |  PRE-CHORUS 1  |  CHORUS   |  CHORUS   |
  ---------  |  ------------  |  -------  |  -------  |



POST-CHORUS 3 :
   Em     
   1 & 2 & 3 & 4 &   1 & 2 & 3 & 4 &  
e|-----0-------0---|-----0-------0---|
B|-----0-------0---|-----0-------0---|
G|-----0-------0---|-----0-------0---|
D|-----0-------0---|-----0-------0---|
A|-0-------0-0---0-|---0---0---0---0-|
E|-0-------0-0---0-|---0---0---0---0-|


  -------------  |  -------------  |  -------------
  POST-CHORUS 2  |  POST-CHORUS 2  |  POST-CHORUS 2
  -------------  |  -------------  |  -------------


-------
OUTRO :
-------

   Bb                    
   1 & 2 & 3 & 4 &   1 & 2 & 3 & 4 &   1 & 2 & 3 & 4 &   1 & 2 & 3 & 4 &  
e|-x-6-6-6-x-6-6-6-|-6-6-6-6-6-6-6-6-|-6-6-6-6-6-6-6-6-|-6-/-------------|
B|-x-6-6-6-x-6-6-6-|-6-6-6-6-6-6-6-6-|-6-6-6-6-6-6-6-6-|-6-/-------------|
G|-x-6-6-6-x-6-6-6-|-6-6-6-6-6-6-6-6-|-6-6-6-6-6-6-6-6-|-6-/-------------|
D|-x-8-8-8-x-8-8-8-|-8-8-8-8-8-8-8-8-|-8-8-8-8-8-8-8-8-|-8-/-------------|
A|-x-8-8-8-x-8-8-8-|-8-8-8-8-8-8-8-8-|-8-8-8-8-8-8-8-8-|-8-/-------------|
E|-x-6-6-6-x-6-6-6-|-6-6-6-6-6-6-6-6-|-6-6-6-6-6-6-6-6-|-6-/-------------|


				*****
				 END
				*****


Enjoy !!!

Mimi
Добавлено: 26.04.2012
Другие материалы по этой песне:

Страница создана 26.04.2012
http://primanota.ru/mickey-3d/les-mots-chords.htm
Привет, Гость.
Предлагаем пройти революционный курс по гитаре.
Подарок от PrimaNota.Ru, забирай!