PrimaNota.ru - самый крупный в мире бесплатный архив песенных текстов, аккордов, табулатур и нот


Mick Thomson - Too Extreme For Slipknot - таба, видео

Регистрация Запомнить меня
Войти через:  Facebook Google Twitter Vk Yandex Mail.ru

Mick Thomson - Too Extreme For Slipknot - таба, видео

Печатать
Просмотров: 95
Уроки эстрадного вокала в Санкт-Петербурге
Mick Thomson Too Extreme For Slipknot
Tuning A#  

Section 1
A#|------------------|
D#|------------------|
G#|.-10/-9-----------|
C#|--10/-9-5-6--7-8--|
F |.-8-/-7-5-6--7-8--|
A#|--8-/-7-5-6--7-8--|

A#|----------------------------|
D#|----------------------------|
G#|--------9-------------------|
C#|--5-6-7-8-------------------|
F |--5-6-7-8-10-9-8-7-11-10-9-8|
A#|--5-6-7-8-------------------|
              T T T T T   T T T
A#|----------------------|
D#|----------------------|
G#|--10/-9-----------9/9-|
C#|--10/-9-5-6--7-8--9/9-|
F |--8-/-7-5-6--7-8--8/7-|
A#|--8-/-7-5-6--7-8--8/7-|

A#|--------------------------------------|
D#|--------------------------------------|
G#|-------------------------------------.|
C#|--5-6-7-8-----------------------------|   Play Section 1 4X
F |--5-6-7-8-10-9-8-7-11-10-9-8-10-9-8-7.|
A#|--5-6-7-8-----------------------------|
              T T T T T   T T T T  T T T    

Section 2

A#|----------------------------|
D#|----------------------------|
G#|.-9-----10--------9---------|
C#|--9-----10--------9---------|
F |.-7-----8---------7---------|
A#|--7-----8----0----7---------|

A#|---------------------------------------|
D#|---------------------------------------|
G#|--10----------------------------------.|
C#|--10-----------------------------------|   Play section 2 4X
F |--8--------10-9-8-7-11-10-9-8-10-9-8-7.|
A#|--8------------------------------------|
              T  T T T T   T T T  T T T T    

Section 3

A#|---------------------------------------|
D#|---------------------------------------|
G#|--10-----------------------------------|
C#|--10-----------------------------------|  
F |--8--------10-9-8-7-11--7-7-10-10------|
A#|--8------------------------------------|
              T  T T T T   T T T  T           
Section 4

A#|-----------------------------------------|
D#|-----------------------------------------|
G#|.----------------------------------------|
C#|--------------------3-----8--------------|   
F |.-6-6-6-6--6-6-6-6--3-----8-----7-7-10-10|
A#|--------------------3-0-0-6-0-0----------|
     T T T T  T T T T              T T  T T    
A#|----------------------------------------------|
D#|---------------------------------------------.|
G#|----------------------------------------------| Play Section 4 5X
C#|---------------------------------------------.|   
F |--6-6-6-6--6-6-9-9--6-6-9-9--6-6-8-8-7-7-10-7-|
A#|----------------------------------------------|
     T T T T  T T T T  T T T T  T T T T T T T  T  

Section 5
 
A#|-----------------------------------------|
D#|-----------------------------------------|
G#|-----------------------------------------|
C#|------------------------------12/--------|   
F |--6-6-6-6--6-6-9-9--6-6-9-9---12/--------|
A#|------------------------------12/--------|
     T T T T  T T T T  T T T T

Section 6

A#|-----------------------------------------|
D#|-----------------------------------------|
G#|.----------------------------------------|
C#|-----------------------------------------|   
F |.-7-7-7-7--7-7-7-7--7-7-7-7--9-9-10-10---|
A#|-----------------------------------------|
     T T T T  T T T T  T T T T  T T T  T    
A#|------------------------------------------------|
D#|------------------------------------------------|
G#|.-----------------------------------------------|
C#|--9-9-9-9--9-9-9-9--9-9-9-9--10-10-9-9----------|   
F |.--------------------------------------10-10-9-9|
A#|------------------------------------------------|
     T T T T  T T T T  T T T T  T  T  T T  T T  T T 
A#|--------------------------------------|
D#|--------------------------------------|
G#|.-------------------------------------|
C#|--------------------------------------|   
F |.-6-6-6-6--6-6-6-6--6-6-6-6--7-7-9-9--|
A#|--------------------------------------|
     T T T T  T T T T  T T T T  T T T T          
A#|--------------------------------------|
D#|--------------------------------------|
G#|.------------------------------------.|
C#|-------------------7-7-9-7------------|   Play section 6X
F |.--10-10-9-9-10-10---------10-9-7--5-.|
A#|--------------------------------------|
      T  T  T T  T T  T T T T T T  T  T  

And the end on
 
A#|------------|
D#|------------|
G#|------------|
C#|------------|   
F |--7~~~~-----|
A#|------------|


                 
Добавлено: 24.12.2015
Другие материалы по этой песне:

Страница создана 06.05.2012
http://primanota.ru/mick-thomson/too-extreme-for-slipknot-chords.htm
Привет, Гость.
Предлагаем пройти революционный курс по гитаре.
Подарок от PrimaNota.Ru, забирай!