PrimaNota.ru - самый крупный в мире бесплатный архив песенных текстов, аккордов, табулатур и нот


Mick Flannery - Tomorrows Paper - таба, видео

Регистрация Запомнить меня
Войти через:  Facebook Google Twitter Vk Yandex Mail.ru

Mick Flannery - Tomorrows Paper - таба, видео

Печатать
Просмотров: 88
Song: Tomorrow's Paper
Artist: Mick Flannery
Album: White Lies

As of late Ultimate Guitar has taken to messing up my tabs and if they have again, I'm sorry.
Just listen to the song to get the right timings of the chords. 

Intro:

          G#m         G#m             G#m              G#m
E |--4b------4-4b-----4--4b-----4-4-|
B |--4b------4-4b-----4--4b-----4-4-|
G |--4b------4-4b-----4--4b-----4-4-|
D |------6----------6--------6------|
A |------6----------6--------6------|
E |------4----------4--------4------|


(Palm mute slightly here)
      
        E                         B
E |--------------------------------|
B |-------------------7--5--4------|
G |----4--4--6--7--4---------------|
D |--------------------------------|
A |--------------------------------|
E |--------------------------------|

Verse 1: (Same rhythm on the G#ms as the intro)

G#m
        Go now and be famous,
G#m
         Live up to what we're sayin',
G#m                                                  E             B
         You know we only want the best for you in the end.
G#m
        We'll put it on a plate so,
G#m
         You take just what you need to,
G#m                                                         E               B
         Come on you know you want it all, you'd die to see to

Bridge 1: 

Bm
      All these riches baby,
Bm     
      See all these riches baby,
G
    All this gold and silver,
G
    All this fame and splendour

This is a little fill that Hugh does of the bridge. I'll try to do the timing.

    Bm       Bm       G        G    
E |----3/5--5/3--3/7-------------|
B |-----------------------------|

Chorus 1: (The electric does some picking on these chords but I won't spoil you by tabbing it out)

D          A       D         A
No sir, I was never meant for
G                     D               A
Photos for tomorrow's paper,
G                                  D      A            Bm
Hey, could you look over here no more?

Bm    Bm    Bm    Bm      (<<< Sticatto those Bms!)

Verse 2: (Same chords as the first)

Would I let you down if
I said I didn't want it,
I've only ever tried to say it straight but now it's
Good as your last performance,
God help you disappoint us,
I love it but it's what you pay to play

Bridge 2: (Same chords and fill as the first)

An' hey, one question for
Just one question for
Your little heart that's beating
Your little heart thats beating

Chorus 2: (Same chords, again, as the first)

When's it gonna tire of hearing
Sad sad songs a-playing,
Nothing's ever really far from fading out.  

Solo 1: 

         G#m                                                G#m
E |----------------------------------------------|
B |--------4-----------------------4-------------|
G |-----4-----4--7--7--6--4-----4-----4--7--7--6-|
D |--6-----------------------6-------------------|
A |----------------------------------------------|
E |----------------------------------------------|

         Bm                                     E
E |-------------------------------------|
B |--------7--7-----7--------7--7-----7-|
G |-----7--------9--------7--------9----|
D |--9-----------------9----------------|
A |-------------------------------------|
E |-------------------------------------|

         G#m                                                G#m
E |----------------------------------------------|
B |--------4-----------------------4-------------|
G |-----4-----4--7--7--6--4-----4-----4--7--7--6-|
D |--6-----------------------6-------------------|
A |----------------------------------------------|
E |----------------------------------------------|

         Bm                                     E
E |--------------------------------------|
B |--------7--7-----7--------7-----------|
G |-----7--------9--------7-----9--9-7-6-|
D |--9-----------------9-----------------|
A |--------------------------------------|
E |--------------------------------------|

Repeat Bridge 1 and Chorus 1

Solo 2: (Same rhythm as intro and verse on the G#ms)
         
        G#m                                                          G#m
E |---------------------------------------------------------|
B |--------16----16-------16-----------16----16----16-------|
G |-----16----18-------16----16-----16----18----18----16----|
D |--18-------------18-----------18----------------------18-|
A |---------------------------------------------------------|
E |---------------------------------------------------------|

           G#m                                                     E                      B
E |---------------------------------------------------------|
B |--------16----16-------------17--17-17-19-17-16-16-17-16-|
G |-----16----18----16----18-16-----------------------------|
D |--18----------------18-----------------------------------|
A |---------------------------------------------------------|
E |---------------------------------------------------------|

          G#m                                                         G#m
E |---------------------------------------------------------|
B |--------16----16-16----16-----------16----16-16----16----|
G |-----16----18-------18----16-----16----18-------18----16-|
D |--18--------------------------18-------------------------|
A |---------------------------------------------------------|
E |---------------------------------------------------------|
 
          G#m                                                      E                      B
E |---------------------------------------------------------|
B |--------16----16-------------17--17-17-19-17-16-16-17-16-|
G |-----16----18----16----18-16-----------------------------|
D |--18----------------18-----------------------------------|
A |---------------------------------------------------------|
E |---------------------------------------------------------|

Outro: (Hugh throws in a a nice lick on the electric here)

    G#m                        G#m             G#m       E                    B                G#m
E |--4----4---4----4-4---4----4---------------------------4-|
B |--4----4---4----4-4---4----4---------------------------4-|
G |--4----4/6-4----4-4/6-4----4--7/8-8-7/8-8-7/8-8-7-4-----4|
D |---------------------------------------------------6---6-|
A |-------------------------------------------------------6-|
E |-------------------------------------------------------4-|


There ya go! Great song this! If I made any mistakes tell me and IF YOU KNOW HOW 
TO FIX THE PROBLEM I'M HAVING WITH MY TABS then tell me! You will be richly rewarded!
Добавлено: 07.08.2013
Другие материалы по этой песне:
  • Аккорды и текст

Страница создана 07.08.2013
http://primanota.ru/mick-flannery/tomorrows-paper-chords.htm
Привет, Гость.
Предлагаем пройти революционный курс по гитаре.
Подарок от PrimaNota.Ru, забирай!