PrimaNota.ru - самый крупный в мире бесплатный архив песенных текстов, аккордов, табулатур и нот


Michelle Branch - To Be Like You - таба, видео

Регистрация Запомнить меня
Войти через:  Facebook Google Twitter Vk Yandex Mail.ru

Michelle Branch - To Be Like You - таба, видео

Печатать
Просмотров: 110
Уроки эстрадного вокала в Санкт-Петербурге
Artist: Michelle Branch
Album:The Spirit Room
Tabbed by: Whitney Taylor-- (TayTay62@aol.com)
 **Capo First Fret**
 Chorus Chords:
 Emsus-- 022033
 Csus-- 032033
 Gsus--320033
 Dsus-- 000233
 Verse Chords:
 Tabbed Intro-Verse


Intro-Verse tab: (Appreciated)
 E|------------------------------------------------3------= ---------|
 B|-------------------------------3-----------------------= ---------|
 G|--2-------------0---------------0----------------0-----= -------|
 D|-----0-------------0-----------------------------------= --------|
 A|---------3--------------3------------3----------------3= -------|
 E|-------3--------------2------------0---------------0---= -------|


Bridge Tab:
 E|--0-------5-------0-------5--------0-------0-------3---= ---0-----------|
 B|--3-------3-------3-------3--------3-------0-------2---= ---0-----------|
 G|--2-------0-------2-------0--------2-------2-------0---= ---0-----------|
 D|--0-------4-------0-------4--------0-------2-------0---= ---3-----------|
 A|--1-------5-------1-------5--------1-------1-------3---= ---2-----------|
 E|--3-------0-------3-------0--------3-------0-------3---= ---3-----------|
----------------------------------------------------------------------------=
-----------------------------------------------

Intro: (Appreciated)=20

Verse: (Appreciated)

Chorus: (Emsus-Csus-Gsus-D)

Verse: (Appreciated)

Chorus

Bridge:=20

Chorus

Chorus

Ending: (Appreciated)
 (End on-- 030030)

     
Добавлено: 01.08.2013
Другие материалы по этой песне:
  • Аккорды и текст

Страница создана 01.08.2013
http://primanota.ru/michelle-branch/to-be-like-you-chords.htm
Привет, Гость.
Предлагаем пройти революционный курс по гитаре.
Подарок от PrimaNota.Ru, забирай!