PrimaNota.ru - самый крупный в мире бесплатный архив песенных текстов, аккордов, табулатур и нот


Micheal W Smith - Agnus Dei - таба, видео

Регистрация Запомнить меня
Войти через:  Facebook Google Twitter Vk Yandex Mail.ru

Micheal W Smith - Agnus Dei - таба, видео

Печатать
Просмотров: 68
-------------------------------------------------------------------------------
                             agnus dei - Micheal W. Smith
-------------------------------------------------------------------------------
Tabbed by:
E-mail:
key of A
Tuning:E-A-D-G-B-e

e|---------------------------------------------------------------------------------------|
B|---------------------------------------------------------------------------------------|
G|------------------------------------1----2--1--------1---------------------------------|
D|---0-0---2---4---2---2----0--0-2--4-2----4------4----2---4---2-4-2-0---2---------------|
A|-4-2-2---4---5---4---4--4-2--2-4--5----------------------------5-------4---------------|
E|-5----------------------5--------------------------------------------------------------|

   Al  -   le-lu  -   ia Al  -  le-lu  -  ia for the Lord God almighty reigns (repeat)

e|---------------------------------------------------------------------------|
B|--------0-2-0-2------2----3---2--2---0--0-0-2-----0-----------0---2--0-----|
G|------2-1-2-1-2--2---2----2---2--2-2----0------------2------------------2--|
D|------4-2-2-2-2--2---2--------2--2-4----2-----------------4----------------|
A|-----------------4-----------------4----------------------5----------------|
E|---------------------------------------------------------------------------|

chorus: holy holy are you Lord God almighty worthy is the Lamb worthy is the 

e|---------------------------------------------------------------------------|
B|-----------------2-0-2-------2----3---2--2---0--0--0--2--0------------0--2-|
G|-----------1---2-2-1-2---2---2----5---2--2-2----1------------2-------------|
D|---4---4-----------2-2---2---2--------2--2-4----2-----------------4--------|
A|---5---------------------4-----------------4----------------------5--------|
E|---------------------------------------------------------------------------|

   Lamb you are holy holy are you Lord God almighty worthy is the Lamb worthy 

e|---------------------------------------------------------------------------|
B|-0-------------------------------------------------------------------------|
G|------2----------1-2-2-----------------------------------------------------|
D|-----------4---4-2---2-----------------------------------------------------|
A|-----------5---5-----------------------------------------------------------|
E|---------------------------------------------------------------------------|
   is  the Lamb amen


************************************

| /   slide up
| \   slide down
| h   hammer-on
| p   pull-off
| ~   vibrato
| +   harmonic
| x   Mute note
| b   Bend
| pb  Pre-bend
| br  Bend release
| pbr Pre-bend release
| brb Bend release bend

************************************
Добавлено: 03.01.2016
Вам также может быть интересно:
Другие материалы по этой песне:
  • Аккорды и текст

Страница создана 03.01.2016
http://primanota.ru/micheal-w-smith/agnus-dei-chords.htm
Привет, Гость.
Предлагаем пройти революционный курс по гитаре.
Подарок от PrimaNota.Ru, забирай!