PrimaNota.ru - самый крупный в мире бесплатный архив песенных текстов, аккордов, табулатур и нот


Michale Graves - Lost Skeleton - таба, видео

Регистрация Запомнить меня
Войти через:  Facebook Google Twitter Vk Yandex Mail.ru

Michale Graves - Lost Skeleton - таба, видео

Печатать
Просмотров: 50
-------------------------------------------------------------------------------
                             Lost Skeleton - Michale Graves
-------------------------------------------------------------------------------
Tabbed by: Gabriel aka Imlatino
E-mail:

Song here: https://www.youtube.com/watch?v=WUQSRsCT408

Tuning: Half-Step Down

[INTRO]

eb|------------------------------------------------------------------------|
Bb|------------------------------------------------------------------------|
Gb|----------7--5----------------------------------------------------------|
Db|----------7--5-------------5--2----[x4]---8888888888888888888888888-----|
Ab|--5-7-5-0-5--3---3-5-3-0---5--2-----------8888888888888888888888888-----|   
Eb|---------------------------3--0-----------6666666666666666666666666-----|
                                             xxxxxxxxxxxxxxxxx
[VERSE 1,2]

eb|------------------|
Bb|------------------|
Gb|------------------| x23
Db|------------------|
Ab|------------------|
Eb|-0-0-5-3-0-0-5-3--|

[PRE-CHORUS]

eb|----------------------------------------------------|
Bb|----------------------------------------------------|
Gb|--66666666-------------66666666---99999999----------|
Db|--66666666---7777777---66666666---99999999----------|
Ab|--44444444---7777777---44444444---77777777----------|
Eb|-------------5555555--------------------------------|

eb|-------------------------------------------------|
Bb|-------------------------------------------------|
Gb|--66666666---------------------------------------|
Db|--66666666---77777777---6666666---7777777--------|
Ab|--44444444---77777777---6666666---7777777--------|
Eb|-------------55555555---4444444---5555555--------|

[CHORUS]

eb|---------------------------------------------------|
Bb|---------------------------------------------------|
Gb|--999999999----------------------------------------|
Db|--999999999---99999999---777777777777777777--------|  x2
Ab|--777777777---99999999---777777777777777777--------|
Eb|--------------77777777---555555555555555555--------|

[BRIDGE, ENDING]

eb|----------------------------------------|
Bb|----------------------------------------|
Gb|----------------------------------------|
Db|---55--44--55--44--55--44---8--8--------|  x4
Ab|---55--44--55--44--55--44---8--8--------|
Eb|---33--22--33--22--33--22---6--6--------|



[INTRO]

[VERSE 1]

[PRE-CHORUS]

[CHORUS]

[BRIDGE]

[VERSE 2]

[PRE-CHORUS]

[CHORUS]

[ENDING]



************************************

| /   slide up
| \   slide down
| h   hammer-on
| p   pull-off
| ~   vibrato
| +   harmonic
| x   Mute note
| b   Bend
| pb  Pre-bend
| br  Bend release
| pbr Pre-bend release
| brb Bend release bend

************************************
Добавлено: 10.06.2016
Другие материалы по этой песне:
  • Аккорды и текст

Страница создана 10.06.2016
http://primanota.ru/michale-graves/lost-skeleton-chords.htm
Привет, Гость.
Предлагаем пройти революционный курс по гитаре.
Подарок от PrimaNota.Ru, забирай!