PrimaNota.ru - самый крупный в мире бесплатный архив песенных текстов, аккордов, табулатур и нот


Michael Stanley Band - He Cant Love You - таба, видео

Регистрация Запомнить меня
Войти через:  Facebook Google Twitter Vk Yandex Mail.ru

Michael Stanley Band - He Cant Love You - таба, видео

Печатать
Просмотров: 87
-------------------------------------------------------------------------------
        He Can't Love You - Michael Stanley Band (Heartland Album)
-------------------------------------------------------------------------------
Tabbed by: Jim Backston
Twitter: JBackston


Intro & Verses - Guitar

    C     E  F  A A G
e|----------------------|
B|--5\------------------|
G|--5\----------2-2-----|
D|--5\----------2-2-----|
A|--3\----2--3--0-0-----|
E|--------0--1------3---|

Intro Sax Solo - arranged for guitar
e|-------------------------------------------------10\-----------------------|
B|-/13---------------------------------------13-13---------13---13-----------|
G|------14p12---12-14--------13-13-------/14------------/14--/14--12---------|
D|------------14---------/14-------14----------------------------------------|
A|---------------------------------------------------------------------------|
E|---------------------------------------------------------------------------|


e|-----------------------------|
B|-----------------13-13---13--|
G|-------------/14------14-----|
D|---14p12---------------------|
A|---------15------------------|
E|-----------------------------|

Verse 1
Ev'ry day I feel love growin
What you say about it showin
And who's this guy sayin
That he knows how to mystify
You know they just come and go honey

 Bridge (Pre Chorus)
e|---------------------------------------------------------------------------|
B|---------------------------------------------------------------------------|
G|---------------------------------------------------------------------------|
D|---3p2-5-5------------3p2--5-5---------5-5-----3p2-5-5--------3p2-5-5------|
A|-------3-3--3--3--5--------3-3-3-3-5---3-3-5-------3-3-3-3--5-----3-3-3-3-5|
E|------------1--1--3------------1-1-3-------3-----------1-1--3---------1-1-3|

He wants to hold you
Don't you let him try
He says he needs you
But you better pass him by

Chorus

C                              F
Cause he can't love you like I love you

A        G
Just let me prove it to you
C                         F
He can't love you like I love you
A         G
So good as usin' you
C            Am              F
But he can't love you like I love you
G
Well come on let the provin begin
F               F
Ooh let me in, let me in
F               F
Let me in, let me in baby


Guitar fill at end of first chorus

e|------------------------8-8-8---10b-10pb-10pb-|
B|------------------------8-8-8-----------------|
G|--------------------10b-----------------------|
D|---------5------5-----------------------------|
A|-----5-7----5-7-------------------------------|
E|----------------------------------------------|


Verse 2 (play same as first verse)
Any way that you want to
Anything that I can show you
Listen to me
You won't be regrettin
And the time we spend
Well we won't be forgettin baby

Bridge (play same as first bridge)
Cause when I hold you
Gonna show you why
It's like I told you
I'm no ordinary guy

C                            F
And he can't love you like I love you
A           G
Just let me prove it to you
C                        F
He can't love you like I love you
A           G
So good at usin you
C            Am               F
But he can't love you like I love you
G
Well come on let the provin begin
F             F
Ooh let me in, let me in
F           F
Let me in, let me in

  Guitar Solo
e|-------8----------8-------------8-8--10br----------------------------------|
B|------8-----8----8------8-----8---8----------------------------------------|
G|--10b----10b--10b---10b---10b-------------5h7p5h7p5h7p5h7p5h7p5h7p5h7p5h7--|
D|---------------------------------------------------------------------------|
A|---------------------------------------------------------------------------|
E|---------------------------------------------------------------------------|


e|------5-------------8-10b~~--12-13-15brb--12-12-12-12-12--13-15-15/20------|
B|----5---8b~-------8-----------------------13-13-13-13-13-------------------|
G|--7b-----------10b---------------------------------------------------------|
D|---------------------------------------------------------------------------|
A|---------------------------------------------------------------------------|
E|---------------------------------------------------------------------------|


  Sax Solo - arranged for guitar
e|---------------------------------------------------------------------------|
B|--13-13\------------13-13----13-15-13-13-13\---------13-13--13-------------|
G|-----------12-12-14-------14-----------------12-12-14-----14---14----------|
D|---------------------------------------------------------------------------|
A|---------------------------------------------------------------------------|
E|---------------------------------------------------------------------------|


e|----------------------------|
B|-------------------16-15-13-|
G|--14p12----12-14\-----------|
D|--------14------------------|
A|----------------------------|
E|----------------------------|


Repeat Bridge
Chorus till fade


************************************

| /   slide up
| \   slide down
| h   hammer-on
| p   pull-off
| ~   vibrato
| +   harmonic
| x   Mute note
| b   Bend
| pb  Pre-bend
| br  Bend release
| pbr Pre-bend release
| brb Bend release bend

************************************
Добавлено: 07.12.2015
Другие материалы по этой песне:
  • Аккорды и текст

Страница создана 07.12.2015
http://primanota.ru/michael-stanley-band/he-cant-love-you-chords.htm
Привет, Гость.
Предлагаем пройти революционный курс по гитаре.
Подарок от PrimaNota.Ru, забирай!