PrimaNota.ru - самый крупный в мире бесплатный архив песенных текстов, аккордов, табулатур и нот


Michael Stanley Band - Falling In Love Again - таба, видео

Регистрация Запомнить меня
Войти через:  Facebook Google Twitter Vk Yandex Mail.ru

Michael Stanley Band - Falling In Love Again - таба, видео

Печатать
Просмотров: 94
-------------------------------------------------------------------------------
   Michael Stanley Band - Falling In Love Again (Northcoast CD)
-------------------------------------------------------------------------------
Tabbed by: Jim Backston
Twitter: JBackston



  Intro (Keep repeating this throughout fade-in)
e|---------|
B|---3-----|
G|-2---2---|
D|-------0-|
A|---------|
E|---------|

  Verse
e|-----------------------------------------2---------------------------------|
B|----3------3---3---3---3------3----0-----3--3---3---3---3---3-----3---0----|
G|--2---2---2-0-0-0-0-0-0-0---2-----2--2---2-2-2-2-0-0-0-0-0-0-0--2----2--2--|
D|-0------0----0---0---0-----0-----2-------0----0---0---0---0----0----2------|
A|--------------------------------0----------------------------------0-------|
E|---------------------------------------------------------------------------|


I don't know why I came here tonight
I don't know how this all got started...
I'm so tired of not being right--
Of being one of the broken-hearted



Pre Chorus:

e|--2-------------0-------------3---------------------------------------------|
B|--3-------------0-------------0--------0---------0--------------------------|
G|--4-------------0-------------0----------2-----2---2----2-------------------|
D|--4-------------2-------------0-------------2---------2---------------------|
A|--2-------------2-------------2---------------------------------------------|
E|----------------0-----------2-3---------------------------------------------|
    I don't even know your name but Darling, just the same...

(Chorus:)

e|--2--2-----------2-2-------------3-3---------------------------------------|
B|--3--3-----------2-2-------------0-0-------------------0-------------------|
G|--2--2-----------2-2-------------0-0---------------2-----2-----------------|
D|--0--0-----------2-2-------------0-0-------------2---2-----2---------------|
A|-----------------4-4-------------2-2-----------0-------------0-------------|
E|-----------------2-2-------------3-3---------------------------------------|
    Whoever you are, I'm falling in love again... Falling in love again


e|--2--2-----------2-2-------------3-3-------------------------------2--3----|
B|--3--3-----------2-2-------------0-0-------------------0-----------3--3----|
G|--2--2-----------2-2-------------0-0---------------2-----2---------2--0----|
D|--0--0-----------2-2-------------0-0-------------2---2-----2-------0--0----|
A|-----------------4-4-------------2-2-----------0-------------0--------x----|
E|-----------------2-2-------------3-3----------------------------------3----|
    Whoever you are, I'm falling in love again... Falling in love a g a i  n


   Post-Chorus Chords                       (Only Play this after Chorus 1)
e|-2----0-----3--2--0----------------------|-2-3-2-0---3--2-0----------------|
B|-3----2-----0--3--2------0------0------0-|-3-3-3-2---0--3-2----------------|
G|-2----2-----0--4--2----2---2---2--2--2---|-2-0-2-2---0--4-2----------------|
D|-0----2-----0--4--2--2-------2-----2-----|-0-0-0-2---0--4-2----------------|
A|------0-----2--2--0----------------------|---x---0---2--2-0----------------|
E|------------3----------------------------|---3-------3---------------------|
   Oooooooooooooooo
  

Verse 2
Killing time with a drink or two
Or maybe some conversation
I had nothing really better to do--
Now I'm looking for explanations

I'm so tired of love's sweet lies
But they're not in your eyes...

Repeat Chorus/Post Chorus without extra section 

(Bridge:)

e|--3-----------0------------------2----------3------------------------------|
B|--0-----------2------------------3----------1--------------------------0---|
G|--0-----------0------------------2----------0-----------------------0----0-|
D|--0-----------2------------------0----------2----------------------0-0-----|
A|--2-----------0-----------------------------3------------------------------|
E|--3---------------------------------------------------------------3--------|
   You know, my heart's been hiding, then you walked in and took it away

e|----0-----0---0---0---0--0--0--0--0---------0-0-0-0-0-0-0-0----------------|
B|----0-----1---1---1---1--1--1--1--1---------2-2-2-2-2-2-2-2----------------|
G|----0-----0---0---0---0--0--0--0--0---------2-2-2-2-2-2-2-2----------------|
D|----2-----2---2---2---2--2--2--2--2---------2-2-2-2-2-2-2-2----------------|
A|----2-----3---3---3---3--3--3--3--3---------0-0-0-0-0-0-0-0----------------|
E|--2-0----------------------------------------------------------------------|
            Now there's something that I gotta say, Darling...

Repeat Chorus

I don't know why I came here tonight
I don't know how this all got started...

Repeat Chorus
Добавлено: 07.12.2015
Другие материалы по этой песне:
  • Аккорды и текст

Страница создана 07.12.2015
http://primanota.ru/michael-stanley-band/falling-in-love-again-chords.htm
Привет, Гость.
Предлагаем пройти революционный курс по гитаре.
Подарок от PrimaNota.Ru, забирай!