PrimaNota.ru - самый крупный в мире бесплатный архив песенных текстов, аккордов, табулатур и нот


Michael Schulte - A Sky Full Of Stars - таба, видео

Регистрация Запомнить меня
Войти через:  Facebook Google Twitter Vk Yandex Mail.ru

Michael Schulte - A Sky Full Of Stars - таба, видео

Печатать
Просмотров: 295
Уроки эстрадного вокала в Санкт-Петербурге
A Sky Full Of Stars - Michael Schulte

Tabbed by Lovro Mirnik

This is a tablature of Micahel Schultes' beautiful cover of A Sky Full Of Stars,
originally performed by Coldplay.

Any suggestions, criticism and praise can be left in the comment section.
You can also email me at lovromirnik@gmail.com.
____________
Intro

E|----------------------------------------------------|
B|--7-----7-----7-----7-------7-----7-----7-----7-----|
G|-----6-----6-----6-----6-------6-----6-----6-----6--| Part #1
D|----------------------------9-----------------------| Repeat x1
A|--6-------------------------------------------------|
e|----------------------------------------------------|

E|----------------------------------------------------|
B|--7-----7-----7-----7-------7-----7-----7-----7-----|
G|-----6-----6-----6-----6-------6-----6-----6-----6--| Part #2
D|----------------------------------------------------| Repeat x1
A|--9-------------------------8-----------------------|
e|----------------------------------------------------|

____________
Cause' you're a sky, cause' you're a sky full of stars,
I'm gonna' give you my heart.
Cause' you're a sky, cause' you're a sky full of stars,

Part #1 and Part#2 | Play in sequence | Repeat x3

and cause' you light up the path.

Part #1 | Repeat x1

E|-------------------------------|
B|--7-----7-----7-----7----------|
G|-----6-----6-----6-----6-------| Part #3
D|-------------------------------| Repeat x1
A|--9-------------------------8--|
e|-------------------------------|

____________
I don't care, go on and tear me apart,
I don't care if you do.
Cause in a sky, cause in a sky full of stars,
I think I saw you.
Hmmmmmmmm...
Hmmmmmmmm...

Part #1 and Part#2 | Play in sequence | Repeat x6

____________
Cause' you're a sky, cause' you're a sky full of stars,
I'm want to die in your arms, arms.
Cause' you get lighter the more it gets dark,

Part #1 and Part#2 | Play in sequence | Repeat x3

I'm gonna' give you my heart.

Part #1 | Repeat x1
Part #3 | Repeat x1

____________
I don't care, go on and tear me apart,
I don't care if you do.
Cause in a sky, cause in a sky full of stars,
I think I saw you.
I think I saw you.
Hmmmmmmmm...
Hmmmmmmmm...
Hmmmmmmmm...
Hmmmmmmmm...

Part #1 and Part#2 | Play in sequence | Repeat x9
Добавлено: 27.06.2015
Другие материалы по этой песне:
  • Аккорды и текст

Страница создана 27.06.2015
http://primanota.ru/michael-schulte/sky-full-of-stars-chords.htm
Привет, Гость.
Предлагаем пройти революционный курс по гитаре.
Подарок от PrimaNota.Ru, забирай!