PrimaNota.ru - самый крупный в мире бесплатный архив песенных текстов, аккордов, табулатур и нот


Michael Schenker - Red Sky - таба, видео

Регистрация Запомнить меня
Войти через:  Facebook Google Twitter Vk Yandex Mail.ru

Michael Schenker - Red Sky - таба, видео

Печатать
Просмотров: 97
-------------------------------------------------------------------------------
                      RED SKY - Michael Schenker Group
-------------------------------------------------------------------------------
MSG
Red Sky
From: Built To Destroy (1983)

Tabbed by:malpka

Tuning: Standard

INTRO:
[FIG: 1a]


e|------------------------|------------------------|
B|------------------------|------------------------|
G|------------------------|------------------------|
D|------------------------|-----4--5--7-5h7p5-4----|
A|--5h7--7--7--5--7-------|--7------------------5--|
E|---------------------0--|------------------------|


e|------------------------|------------------------|
B|------------------------|------------------------|
G|------------------------|------------------------|
D|------------------------|------------------------|
A|--5h7--7--7--5--7-------|-----7---5---7----------|
E|---------------------0--|----------------0\D-----|


e|------------------------|------------------------|
B|------------------------|------------------------|
G|------------------------|------------------------|
D|------------------------|-----4--5--7-5h7p5-4----|
A|--5h7--7--7--5--7-------|--7------------------5--|
E|---------------------0--|------------------------|
 |                        |                        |
e|------------------------|------------------------|
B|------------------------|------------------------|
G|------------------------|------------------------|
D|--2---------------------|-(2)--------------------|
A|--2---------------------|-(2)--------------------|
E|--0---------------------|-(0)--------------------|

e|------------------------|------------------------|
B|------------------------|------------------------|
G|------------------------|------------------------|
D|------------------------|------------------------|
A|--5h7--7--7--5--7-------|-----7---5---7----5~~---|
E|---------------------0--|------------------------|
 |                        |                        |
e|------------------------|------------------------|
B|------------------------|------------------------|
G|------------------------|------x/----------------|
D|-(2)--------------------|------------\p.s.\------|
A|-(2)--------------------|------------------------|
E|-(0)--------------------|------------------------|


[FIG: 2]
e|------------------------|-----5--7--8-7h8p7-5----|
B|--7/8--8--8--7--8-------|--8------------------7--|
G|------------------------|------------------------|
D|------------------------|------------------------|
A|------------------------|------------------------|
E|------------------------|------------------------|
 |                        |                        |
e|------------------------|------------------------|
B|------------------------|------------------------|
G|------------------------|------------------------|
D|------------------------|-----4--5--7-5h7p5-4----|
A|--5h7--7--7--5--7-------|--7------------------5--|
E|---------------------0--|------------------------|
 |                        |                        |
e|--7h7--7--7--7--7-------|-----7--7------7--7~----|
B|--7h8--8--8--7--8-------|-----8--8------7--7~----|
G|--7h9--9--9--7--9-------|-----9--9------7--7~----|
D|------------------------|------------------------|
A|------------------------|------------------------|
E|------------------------|------------------------|


e|------------------------|------------------------|
B|--7/8--8--8--7--8-------|-----8---7---8---7~-----|
G|------------------------|------------------------|
D|------------------------|------------------------|
A|------------------------|------------------------|
E|------------------------|------------------------|
 |                        |                        |
e|------------------------|------------------------|
B|------------------------|------------------------|
G|------------------------|------------------------|
D|------------------------|------------------------|
A|--5h7--7--7--5--7-------|-----7---5---7---5~-----|
E|---------------------0--|------------------------|
 |                        |                        |
e|--7h7--7--7--7--7-------|-----7--7-------7~~-----|
B|--7h8--8--8--7--8-------|-----8--8-------7~~-----|
G|--7h9--9--9--7--9-------|-----9--9-------7~~-----|
D|------------------------|------------------------|
A|------------------------|------------------------|
E|------------------------|------------------------|


VERSE: 1
[FIG: 3]
  Laughing in the         Face of destruction
e|------------------------|------------------------|
B|-/8---8--8---7--8-------|-----8--8------7--7~----|
G|-/9---9--9---7--9-------|-----9--9------7--7~----|
D|-/9---9--9---7--9-------|-----9--9------7--7~----|
A|-/7---7--7---5--7-------|-----7--7---7--5--5~----|
E|------------------0-0-0-|------------0-----------|

                     With nowhere to go
e|------------------------|------------------------|
B|-/8---8--8---7--8-------|-----8--8----7~----7----|
G|-/9---9--9---7--9-------|-----9--9----7~----7----|
D|-/9---9--9---7--9-------|-----9--9----7~----7----|
A|-/7---7--7---5--7-------|-----7--7----5~----5----|
E|------------------0-0-0-|------------------------|

  We thought on all the    Dreams that we had
e|------------------------|------------------------|
B|-/8---8--8---7--8-------|-----8--8------7--7~----|
G|-/9---9--9---7--9-------|-----9--9------7--7~----|
D|-/9---9--9---7--9-------|-----9--9------7--7~----|
A|-/7---7--7---5--7-------|-----7--7---7--5--5~----|
E|------------------0-0-0-|------------0-----------|

                      Then we let them show
e|------------------------|------------------------|
B|-/8---8--8---7--8-------|-----8--8----7--8---7---|
G|-/9---9--9---7--9-------|-----9--9----7--7---7---|
D|-/9---9--9---7--9-------|-----9--9----7------7---|
A|-/7---7--7---5--7-------|-----7--7----5------5---|
E|------------------0-0-0-|------------------------|


VERSE: 2
[FIG: 3]
We climbed up to the top
But could not see
The skies were ablaze

But after all
That was said
Still we felt the shame


CHORUS:
[FIG: 4]
  Red sky                 Red sky at night
e|---------7~---------5~--|---------7~---------3~--|
B|---------8~---------7~--|---------8~---------5~--|
G|---------9~---------7~--|---------9~---------5~--|
D|--9--9-9-9~--7--7-7-7~--|--9--9-9-9~--5--5-5-5~--|
A|--7--7-7-7~--5--5-5-5~--|--7--7-7-7~--3--3-3-3~--|
E|------------------------|------------------------|

  Stretched out as far as I could see
e|---------3~---------5~--|---------7~---------7~--|
B|---------5~---------7~--|---------8~---------8~--|
G|---------5~---------7~--|---------9~---------9~--|
D|--5--5-5-5~--7--7-7-7~--|--9--9-9-9~--9--9-9-9~--|
A|--3--3-3-3~--5--5-5-5~--|--7--7-7-7~--7--7-7-7~--|
E|------------------------|------------------------|

  Red sky                 Red sky at night
e|---------7~---------5~--|---------7~---------3~--|
B|---------8~---------7~--|---------8~---------5~--|
G|---------9~---------7~--|---------9~---------5~--|
D|--9--9-9-9~--7--7-7-7~--|--9--9-9-9~--5--5-5-5~--|
A|--7--7-7-7~--5--5-5-5~--|--7--7-7-7~--3--3-3-3~--|
E|------------------------|------------------------|

  I felt them coming over me
e|---------3~---------5~--|
B|---------5~---------7~--|
G|---------5~---------7~--|
D|--5--5-5-5~--7--7-7-7~--|
A|--3--3-3-3~--5--5-5-5~--|
E|------------------------|


[FIG: 2]


VERSE: 3
[FIG: 3]
A shout was the
First of the warnings
And then came the rain

Visions were torn
From the lies
That parted out the sane


VERSE: 4
[FIG: 3]
They did it
For love
And gave it for free

Now all the
Things that are left
Are there for you and me


CHORUS:
[FIG: 4]
Red sky, Red sky at night
Feeling them reaching over me
One night that I saw the light
Wondering whatever could it be


SOLO:

e|--------------------------------------|--12-11h12---14--15--19--15--\12--/19-|
B|-----------------------------12-11h12-|--------------------------------------|
G|--------------------12-11h12----------|--------------------------------------|
D|-----------14-13h14-------------------|--------------------------------------|
A|--14-13h14----------------------------|--------------------------------------|
E|--------------------------------------|--------------------------------------|


e|--19b21~~~--r19----17~~~--17~~~--/17--|--17b19--17b19~r17--14~~~--14~~~-14\--|
B|--------------------------------------|--------------------------------------|
G|--------------------------------------|--------------------------------------|
D|--------------------------------------|--------------------------------------|
A|--------------------------------------|--------------------------------------|
E|--------------------------------------|--------------------------------------|


e|--------------------------------------|--------------------------------------|
B|--10tr12----7tr8----------------------|-----------7tr8-----10tr12---/15------|
G|---------------------6tr7-----3tr4----|--6tr7--------------------------------|
D|--------------------------------------|--------------------------------------|
A|--------------------------------------|--------------------------------------|
E|--------------------------------------|--------------------------------------|
 |                                      |                                      |
e|--------------------------------------|--------------------------------------|
B|--------------------------------------|--------------------------------------|
G|--11tr12------------------------------|--------------------11tr12------------|
D|------------11tr12---8tr9-------------|--8tr9----11tr12----------------------|
A|------------------------------9tr10---|--------------------------------------|
E|--------------------------------------|--------------------------------------|


e|--------------------------------------|--------------------------------------|
B|--/13--13-12--------------------------|----------------------10----10--10p7~-|
G|-------------14-12-11----11-----------|-------------------8------------------|
D|----------------------14----14-12-10--|--9~~-----------9---------------------|
A|--------------------------------------|--------------------------------------|
E|--------------------------------------|--------------------------------------|


e|--------------------------------------|--12-11h12---14--15--19--15--\12--/19-|
B|-----------------------------12-11h12-|--------------------------------------|
G|--------------------12-11h12----------|--------------------------------------|
D|-----------14-13h14-------------------|--------------------------------------|
A|--14-13h14----------------------------|--------------------------------------|
E|--------------------------------------|--------------------------------------|


e|--19b21~~~--r19----17~~~--17~~~--/17--|--17b19--17b19~r17--14~~~--14~~~-14\--|
B|--------------------------------------|--------------------------------------|
G|--------------------------------------|--------------------------------------|
D|--------------------------------------|--------------------------------------|
A|--------------------------------------|--------------------------------------|
E|--------------------------------------|--------------------------------------|


e|--------------------------------------|--------------------------------------|
B|-12p10h12--8p7h8-----------------7h8--|--10/12--------14~~--p12--------------|
G|-----------------7p6h7-------6h7------|--------------------------------------|
D|-----------------------9p8h9----------|--------------------------------------|
A|--------------------------------------|--------------------------------------|
E|--------------------------------------|--------------------------------------|
 |                                      |                                      |
e|--------------------------------------|--------------------------------------|
B|--------------------------------------|--------------------------------------|
G|-12p11h12-----------------------------|--------------------------------------|
D|--------12p11h12-9p8h9------8h9-11h12-|--------------------------------------|
A|----------------------10p9h10---------|--------------------------------------|
E|--------------------------------------|--------------------------------------|


e|--------------------------------------|--------------------------------------|
B|-13-12--------------------------------|--------------------------------------|
G|-------14-12--11--12-11---------------|--------------------------------------|
D|----------------14------14-12-10-9----|--------------------7-7-7-7-----------|
A|----------------------------------9\7-|--6-6-6-6--9-9-9-9-----------6-6-6~~--|
E|--------------------------------------|--------------------------------------|

INTERLUDE:
[FIG: 5]
e|--------------------------------------|--------------------------------------|
B|--------------------------------------|--------------------------------------|
G|--------------------------------------|--------------------2----/5----4tr5---|
D|----------5\-------2~~--------5\------|--1~~----------1----------------------|
A|--2-----------------------------------|--------------------------------------|
E|--0-----------------------------------|--------------------------------------|


e|--------------------------------------|--------------------------------------|
B|--------------------------------------|----------------------------------4~~-|
G|--------------------------------------|--------------------2----/5----4------|
D|----------5\-------2~~--------5\------|--1~~----------1----------------------|
A|--2-----------------------------------|--------------------------------------|
E|--0-----------------------------------|--------------------------------------|


e|--------------------------------------|--------------------------------------|
B|-12-12~-12-10-12~~-12-10-12-12-/14-12-|--10~~~--10--12--/14---10~~~----------|
G|-12-12~-12-11-12~~-12-11-12-12-/14-12-|--11~~~--11--12--/14---11~~~----------|
D|--------------------------------------|--------------------------------------|
A|--------------------------------------|--------------------------------------|
E|--------------------------------------|--------------------------------------|
 |                                      |                                      |
e|--------------------------------------|--------------------------------------|
B|--------------------------------------|--------------------------------------|
G|--------------------------------------|--------------------2----/5----4tr5---|
D|----------5\-------2~~--------5\------|--1~~----------1----------------------|
A|--2-----------------------------------|--------------------------------------|
E|--0-----------------------------------|--------------------------------------|


e|--------------------------------------|--------------------------------------|
B|-12-12~-12-10-12~~-12-10-12-12-/14-12-|--10~~~-------------------------------|
G|-12-12~-12-11-12~~-12-11-12-12-/14-12-|--11~~~-------------------5----4tr5---|
D|--------------------------------------|---------------------7----------------|
A|--------------------------------------|---------------6----------------------|
E|--------------------------------------|--------------------------------------|
 |                                      |                                      |
e|--------------------------------------|--------------------------------------|
B|--------------------------------------|--------------------------------------|
G|--------------------------------------|--------------------2----/5----4tr5---|
D|----------5\-------2~~--------5\------|--1~~----------1----------------------|
A|--2-----------------------------------|--------------------------------------|
E|--0-----------------------------------|--------------------------------------|


[FIG: 1b]
e|------------------------|-----5--7--8-7h8p7-5----|
B|--7/8--8--8--7--8-------|--8------------------7--|
G|------------------------|------------------------|
D|------------------------|------------------------|
A|------------------------|------------------------|
E|------------------------|------------------------|
 |                        |                        |
e|------------------------|------------------------|
B|------------------------|------------------------|
G|------------------------|------------------------|
D|------------------------|-----4--5--7-5h7p5-4----|
A|--5h7--7--7--5--7-------|--7------------------5--|
E|---------------------0--|------------------------|


e|------------------------|------------------------|
B|--7/8--8--8--7--8-------|-----8---7---8---7~-----|
G|------------------------|------------------------|
D|------------------------|------------------------|
A|------------------------|------------------------|
E|------------------------|------------------------|
 |                        |                        |
e|------------------------|------------------------|
B|------------------------|------------------------|
G|------------------------|------------------------|
D|------------------------|------------------------|
A|--5h7--7--7--5--7-------|-----7---5---7---5~-----|
E|---------------------0--|------------------------|


e|------------------------|-----5--7--8-7h8p7-5----|
B|--7/8--8--8--7--8-------|--8------------------7--|
G|------------------------|------------------------|
D|------------------------|------------------------|
A|------------------------|------------------------|
E|------------------------|------------------------|
 |                        |                        |
e|------------------------|------------------------|
B|------------------------|------------------------|
G|------------------------|------------------------|
D|------------------------|-----4--5--7-5h7p5-4----|
A|--5h7--7--7--5--7-------|--7------------------5--|
E|---------------------0--|------------------------|
 |                        |                        |
e|------------------------|------------------------|
B|------------------------|------------------------|
G|------------------------|------------------------|
D|--2---------------------|-(2)--------------------|
A|--2---------------------|-(2)--------------------|
E|--0---------------------|-(0)--------------------|


e|------------------------|------------------------|
B|--7/8--8--8--7--8-------|-----8---7---8---7~-----|
G|------------------------|------------------------|
D|------------------------|------------------------|
A|------------------------|------------------------|
E|------------------------|------------------------|
 |                        |                        |
e|------------------------|------------------------|
B|------------------------|------------------------|
G|------------------------|------------------------|
D|------------------------|------------------------|
A|--5h7--7--7--5--7-------|-----7---5---7---5~-----|
E|---------------------0--|------------------------|
 |                        |                        |
e|------------------------|------------------------|
B|------------------------|------------------------|
G|------------------------|------------------------|
D|-(2)--------------------|-(2)--------------------|
A|-(2)--------------------|-(2)--------------------|
E|-(0)--------------------|-(0)--------------------|

VERSE: 1
[FIG: 3]
Laughing in the
Face of destruction
With nowhere to go

We thought on all the
Dreams that we had
Then we let them show


VERSE: 4
[FIG: 3]
They did it
For love
And gave it for free

Now all the
Things that are left
Are there for you and me


CHORUS:
[FIG: 4]
Red sky, Red sky at night
Stretched out as far as I could see
Red sky, Red sky at night
Wondering whatever could it be


Red sky, Red sky at night
I felt them coming over me
One night that I saw the light
Now there is nothing more to see


OUTRO SOLO:
[FIG: 4]
e|--15---14h15p15---12------------------|--15---14h15p14---12------------------|
B|-----------------------15---15/17~~---|-----------------------15---12/13~~---|
G|--------------------------------------|--------------------------------------|
D|--------------------------------------|--------------------------------------|
A|--------------------------------------|--------------------------------------|
E|--------------------------------------|--------------------------------------|


e|--15---14h15p14---12--14-15-17-15-14--|--------------------------------------|
B|--------------------------------------|--15/17--17b19--17b20--/17~~~-~-------|
G|--------------------------------------|--------------------------------------|
D|--------------------------------------|--------------------------------------|
A|--------------------------------------|--------------------------------------|
E|--------------------------------------|--------------------------------------|


e|--15---14h15p15---12------------------|--15---14h15p14---12------------------|
B|-----------------------15---15/17~~---|-----------------------15---12/13~~---|
G|--------------------------------------|--------------------------------------|
D|--------------------------------------|--------------------------------------|
A|--------------------------------------|--------------------------------------|
E|--------------------------------------|--------------------------------------|


e|--15---14h15p14---12-14-15-17--17b19--|--17b19~~~------------17b19~~~~-------|
B|--------------------------------------|--------------------------------------|
G|--------------------------------------|--------------------------------------|
D|--------------------------------------|--------------------------------------|
A|--------------------------------------|--------------------------------------|
E|--------------------------------------|--------------------------------------|


e|--17b19~~---17---/17b19~~---/17b19~~--|--17b19---17--15--17--15--------------|
B|--------------------------------------|--------------------------17~~~---/12-|
G|--------------------------------------|--------------------------------------|
D|--------------------------------------|--------------------------------------|
A|--------------------------------------|--------------------------------------|
E|--------------------------------------|--------------------------------------|


e|-------------------------------------------------|----------------------------------------------|
B|-15-15-15p12-15-15-15p12-15-15-15p12-15-15-15p12-|-15-12----12-15-12-15-12-----12~---/17--17--19|
G|-------------------------------------------------|-------14-----------------14------------------|
D|-------------------------------------------------|----------------------------------------------|
A|-------------------------------------------------|----------------------------------------------|
E|-------------------------------------------------|----------------------------------------------|


e|--15---14h15p15---12----------------/-|-12-----------12-15-14-12-14-12--12--12---|
B|-----------------------15---15/17~~---|---15-12--15-12----------------15--15--12-|
G|--------------------------------------|--------14--------------------------------|
D|--------------------------------------|------------------------------------------|
A|--------------------------------------|------------------------------------------|
E|--------------------------------------|------------------------------------------|


e|--------------------------------------|------------------12   ~~~------------|
B|-15--12-15-12-15-12-15-12-15-12-15-12-|--/15b17----------15b17~~~------------|
G|---14---------------------------------|--------------------------------------|
D|--------------------------------------|--------------------------------------|
A|--------------------------------------|--------------------------------------|
E|--------------------------------------|--------------------------------------|


e|--/22b24~----22b24~----22b24~----r22~-|--19--17--15--17--19------------------|
B|--------------------------------------|----------------------17~~~----15\12--|
G|--------------------------------------|--------------------------------------|
D|--------------------------------------|--------------------------------------|
A|--------------------------------------|--------------------------------------|
E|--------------------------------------|--------------------------------------|


e|--------------------------------------|--------------------------------------|
B|-15-12--12-15-12-14-12--12------------|----------------------------------12~-|
G|------14--------------15--15-14-12-14-|/12-----------------------------12----|
D|--------------------------------------|---14-14---14-14-----------12-14------|
A|--------------------------------------|--------/14-----------12-15-----------|
E|--------------------------------------|-----------------12-15----------------|


e|--------------------------------------|
B|--10b12~~~~---------------------------|
G|--------------------------------------|
D|--------------------------------------|
A|--------------------------------------|
E|--------------------------------------|


===============================================================================
| /  slide up
| \  slide down
| h  hammer-on
| p  pull-off
| ~  vibrato
| +  harmonic
| x  Mute note
===============================================================================
Добавлено: 28.03.2012
Другие материалы по этой песне:
  • Аккорды и текст

Страница создана 28.03.2012
http://primanota.ru/michael-schenker/red-sky-chords.htm
Привет, Гость.
Предлагаем пройти революционный курс по гитаре.
Подарок от PrimaNota.Ru, забирай!