PrimaNota.ru - самый крупный в мире бесплатный архив песенных текстов, аккордов, табулатур и нот


Michael Schenker - Let Sleeping Dogs Lie - таба, видео

Регистрация Запомнить меня
Войти через:  Facebook Google Twitter Vk Yandex Mail.ru

Michael Schenker - Let Sleeping Dogs Lie - таба, видео

Печатать
Просмотров: 97
-------------------------------------------------------------------------------
           LET SLEEPING DOGS LIE - Michael Schenker Group
-------------------------------------------------------------------------------
MSG
Let Sleeping Dogs Lie
From: MSG (1981)

Tabbed by:malpka
Email:sfaurot@hotmail.com

Tuning: standard

e|--------------------------------|-------------------------------|
B|--------------------------------|-------------------------------|
G|--------------------------------|-------------------------------|
D|---------------------0-2--------|---------------------x---2--4\-|
A|---------2--2--4h5~~-----4-0-2~~|-(2)---2-4-5~~-(5)---x---0--2\-|
E|--------------------------------|-------------------------------|


e|--------------------------------|-------------------------------|
B|--------------------------------|-------------------------------|
G|--------------------------------|-----------------x-x-x-x-------|
D|-(4)-----------------0-2--------|-----------------x-x-x-x-2--4~-|
A|-(2)---2-4-5~~-(5)-------4-0-2~~|-(2)--2-4-5~-(5)-x-x-x-x-0--2~-|
E|--------------------------------|-------------------------------|

e|--------------------------------|-------------------------------|
B|--------------------------------|-------------------------------|
G|--------------------------------|-------------------------------|
D|---------------------0-2--------|---------------------x---2--4\-|
A|---------2--2--4h5~~-----4-0-2~~|-(2)---2-4-5~~-(5)---x---0--2\-|
E|--------------------------------|-------------------------------|


e|--------------------------------|-------------------------------|
B|--------------------------------|-------------------------------|
G|--------------------------------|-----------------x-x-x-x-------|
D|-(4)-----------------0-2--------|-----------------x-x-x-x-2--4~-|
A|-(2)---2-4-5~~-(5)-------4-0-2~~|-(2)--2-4-5~-(5)-x-x-x-x-0--2~-|
E|--------------------------------|-------------------------------|



e|------------------------------------|-------------------------------|
B|------------------------------------|-------------------------------|
G|------------------------------------|-----9---x-9---x-7--7---9~-----|
D|-9--------9--------9--------9-------|-----9---x-9---x-7--7---9~-----|
A|-7--------7--------7--------7-------|-----7---x-7---x-5--5---7~-----|
E|-0-0-0-0--0-0-0-0--0-0-0-0--0-0-0-0-|--0----------------------------|


e|------------------------------------|-------------------------------|
B|------------------------------------|-------------------------------|
G|------------------------------------|-----9---x-9---x-7--7---2~-----|
D|-9--------9--------9--------9-------|-----9---x-9---x-7--7---2~-----|
A|-7--------7--------7--------7-------|-----7---x-7---x-5--5---0~-----|
E|-0-0-0-0--0-0-0-0--0-0-0-0--0-0-0-0-|--0----------------------------|





                                   something wrong but I can't be sure...
e|--------------------------------|-------------------------------|
B|--------------------------------|----5---x--5---x--3---3---5~---|
G|--------------------------------|----4---x--4---x--2---2---4~---|
D|--------2-2~----------2~--------|----2---x--2---x--0---0---2~---|
A|-------------5-4-2--------------|---(2)--x-(2)--x-(0)-(0)-(2~)--|
E|-0--3/4------------3b-----------|-0-----------------------------|


                                   I gotta know cuz I'm feelin good...
e|--------------------------------|-------------------------------|
B|--------------------------------|----5---x--5---x--3---3---5~---|
G|--------------------------------|----4---x--4---x--2---2---4~---|
D|--------2-2~----------2~--------|----2---x--2---x--0---0---2~---|
A|-------------5-4-2--------------|---(2)--x-(2)--x-(0)-(0)-(2~)--|
E|-0--3/4------------3b-----------|-0-----------------------------|

                                   you got me girl so I just can't move
e|--------------------------------|-------------------------------|
B|--------------------------------|----5---x--5---x--3---3---5~---|
G|--------------------------------|----4---x--4---x--2---2---4~---|
D|--------2-2~----------2~--------|----2---x--2---x--0---0---2~---|
A|-------------5-4-2--------------|---(2)--x-(2)--x-(0)-(0)-(2~)--|
E|-0--3/4------------3b-----------|-0-----------------------------|

                             if I don't head for ground I'm bound to lose
e|--------------------------------|-------------------------------|
B|--------------------------------|----5---x--5---x--3---3---5~---|
G|--------------------------------|----4---x--4---x--2---2---4~---|
D|--------2-2~----------2~--------|----2---x--2---x--0---0---2~---|
A|-------------5-4-2--------------|---(2)--x-(2)--x-(0)-(0)-(2~)--|
E|-0--3/4------------3b-----------|-0-----------------------------|


  don't go giving me               all your reasons
e|--------------------------------|-------------------------------|
B|--------4~---------2~-----------|-------------------------------|
G|--------4~---------2~-----------|-------4~-----------6~---------|
D|--------4~---------2~-----------|-------5~-----------7~---------|
A|--2--2--2~---2--2--2~-----------|-------5~-----------7~---------|
E|--------------------------------|--0----3~------5----5~---------|

  I can see them                   but they hurt me I know...
e|--------------------------------|-------------------------------|
B|--------4~---------2~-----------|-------------------------------|
G|--------4~---------2~-----------|-------4~-----------6~---------|
D|--------4~---------2~-----------|-------5~-----------7~---------|
A|--2--2--2~---2--2--2~-----------|-------5~-----------7~---------|
E|--------------------------------|--0----3~------5----5~---------|



  every time you think you've   got it made
    G
e|--------------------------------|-------------------------------|
B|--------------------------------|-------------------------------|
G|--4-----------------------------|-------------------------------|
D|--5-----------------------------|-------------------------------|
A|--5-----------------------------|-------------------------------|
E|--3-----------------------------|-------------------------------|


    you  stand last.....
    F#
e|--------------------------------|-------------------------------|
B|--------------------------------|-------------------------------|
G|--3-----------------------------|-------------------------------|
D|--4-----------------------------|-------------------------------|
A|--4-----------------------------|-------------------------------|
E|--2-----------------------------|-------------------------------|




| /  slide up
| \  slide down
| h  hammer-on
| p  pull-off
| ~  vibrato
| +  harmonic
| x  Mute note
=============================================================================
==
Добавлено: 02.03.2012
Другие материалы по этой песне:
  • Аккорды и текст

Страница создана 02.03.2012
http://primanota.ru/michael-schenker/let-sleeping-dogs-lie-chords.htm
Привет, Гость.
Предлагаем пройти революционный курс по гитаре.
Подарок от PrimaNota.Ru, забирай!