PrimaNota.ru - самый крупный в мире бесплатный архив песенных текстов, аккордов, табулатур и нот


Michael Schenker - Broken Promises - таба, видео

Регистрация Запомнить меня
Войти через:  Facebook Google Twitter Vk Yandex Mail.ru

Michael Schenker - Broken Promises - таба, видео

Печатать
Просмотров: 104
-------------------------------------------------------------------------------
			BROKEN PROMISES - Michael Schenker Group
-------------------------------------------------------------------------------
MSG
Broken Promises
from: Assault Attack (1982)

Tabbed by:malpka
Email:sfaurot@hotmail.com

Tuning: Standard

[FIG: 1]
e|--------------------------|------------------------------------|
B|--------------------------|------------------------------------|
G|-4~----xxx---7-xx-6---4~--|-2--4--xxxx---7--7-x-x--6--6----4~--|
D|-4~----xxx---7-xx-7---4~--|-2--4--xxxx---7--7-x-x--7--7----4~--|
A|-2~----xxx------------2~--|-x--2--xxxx--(5)(5)----(7)(7)---2~--|
E|--------------------------|-----------------------(5)(5)-------|

e|--------------------------|------------------------------------|
B|--------------------------|------------------------------------|
G|-(4~)--xxx---7-xx-6---4~--|-2--4--xxxx---7--7-x-x--6--6----4~--|
D|-(4~)--xxx---7-xx-7---4~--|-2--4--xxxx---7--7-x-x--7--7----4~--|
A|-(2~)--xxx------------2~--|-x--2--xxxx--(5)(5)----(7)(7)---2~--|
E|--------------------------|-----------------------(5)(5)-------|

VERSE 1:
[FIG: 1]
Feel I could hold you
And you want me to
With all your broken promises
Heartache through and through

Looking for directions
Should I go or stay
All your broken promises
Getting in the way


intro to Chorus:

e|-------------------------------------|
B|-------------------------------------|
G|-(4~)-2-4----x-x---------------------|
D|-(4~)-2-4----x-x---------------------|
A|-(2~)-x-2----x-x-0--2-0-2-4--5-4-5-6-|
E|-------------------------------------|

CHORUS 1:
[FIG: 2]
                You're the right kinda lover
e|--------------------------------|-------------------------------|
B|--------------------------------|-------------------------------|
G|--------------------------------|-------------------------------|
D|--------------------------------|----------------x--------------|
A|--7-5-7---------5h7-5--7-----5--|--7-5-7---------x--------------|
E|--------0----------------5-6----|--------0-------x--5~--6~--7~~-|

                You're looking for cover
e|--------------------------------|-------------------------------|
B|--------------------------------|-------------------------------|
G|--------------------------------|-------------------------------|
D|--------------------------------|----------------x(7~)---x(8~)--|
A|--7-5-7---------5-7-5--7-----5--|--7-5-7---------x(7~)---x(8~)--|
E|--------0----------------5-6----|--------0-------x-5~----x-6~---|


VERSE 2:
[FIG: 1]
Falling over, losing
Tryin to understand
All your broken promises
Getting out of hand

Running out of patience
Losing ground for speed
All your broken promises
May just kill the need


intro to Chorus:

e|-------------------------------------|
B|-------------------------------------|
G|-(4~)-2-4----x-x---------------------|
D|-(4~)-2-4----x-x---------------------|
A|-(2~)-x-2----x-x-0--2-0-2-4--5-4-5-6-|
E|-------------------------------------|

CHORUS 2:
[FIG: 2]
                  You're the right kinda lover
e|--------------------------------|-------------------------------|
B|--------------------------------|-------------------------------|
G|--------------------------------|-------------------------------|
D|--------------------------------|----------------x--------------|
A|--7-5-7---------5h7-5--7-----5--|--7-5-7---------x--------------|
E|--------0----------------5-6----|--------0-------x--5~--6~--7~~-|

                   But you're looking for cover
e|--------------------------------|-------------------------------|
B|--------------------------------|-------------------------------|
G|--------------------------------|-------------------------------|
D|--------------------------------|----------------x(7~)---x(8~)--|
A|--7-5-7---------5-7-5--7-----5--|--7-5-7---------x(7~)---x(8~)--|
E|--------0----------------5-6----|--------0-------x-5~----x-6~---|

	    N.H.    You're the right kinda lover
e|--------------------------------|-------------------------------|
B|--------------------------------|-------------------------------|
G|----------*12-------------------|-------------------------------|
D|----------*12-------------------|----------------x--------------|
A|--7-5-7---------5-7-5--7-----5--|--7-5-7---------x--------------|
E|--------0----------------5-6----|--------0-------x--5~--6~--7~~-|


	    N.H.    But you're looking for cover
e|----------*12-------------------|-------------------------------|
B|----------*12-------------------|-------------------------------|
G|--------------------------------|-------------------------------|
D|--------------------------------|----------------x--------------|
A|--7-5-7---------5-7-5--7-----5--|--7-5-7---------x--------------|
E|--------0----------------5-6----|--------0-------x--5~--6~--7~~-|


[FIG: 3]
      Head to head                  Face to face
e|--------------------------------|-------------------------------|
B|--------------------------------|-------------------------------|
G|--------------------------------|-------------------------------|
D|--------------------------------|------------------------5-4----|
A|----------------5--4---5~-------|-----4~--7~--------4--5-----5--|
E|--3--2---3~---------------------|--5~---------7-5-7-------------|

     Out of time                    Out of place
e|--------------------------------|-------------------------------|
B|--------------------------------|-------------------------------|
G|--------------------------------|-------------------------------|
D|--------------------------------|-------------------------------|
A|--------------4-5--4---5~-------|-----4~--7~-------5~-----------|
E|--3--2---3~---------------------|--5~-----------7~-----5~-------|

      Back to back                   The weak can fall
e|--------------------------------|-------------------------------|
B|--------------------------------|-------------------------------|
G|--------------------------------|-------------------------------|
D|--------------------------------|------------------------5-4----|
A|--------------4-5--4---5~-------|-----4~--7~--------4--5-----5--|
E|--3--2---3~---------------------|--5~---------7-5-7-------------|

   Your broken promises can lose it all
e|--------------------------------|   |------------------|
B|--------------------------------| 2 |------------------|
G|--------------------------------| / |------------------|
D|--------------------------------| 4 |--2-------7\------|
A|--------------4-5--4---5~-------|   |--0---2---7\------|
E|--3--2---3~---------------------|   |------0---5\------|

[FIG: 4]
e|--------------------------------|--------------------------------|
B|--------------------------------|--------------------------------|
G|--------------------------------|--------------------------------|
D|-----------4~--------------2~---|-----------4~--------------2~---|
A|-----------4~--------------2~---|-----------4~--------------2~---|
E|-\2-2-2-2--2~-----0-0-0-0--0~---|--2-2-2-2--2~-----0-0-0-0--0~---|

    Undecided things                 While waitin in the wings
e|--------------------------------|--------------------------------|
B|--------------------------------|--------------------------------|
G|--------------------------------|--------------------------------|
D|-----------4~--------------2~---|-----------4~--------------2~---|
A|-----------4~--------------2~---|-----------4~--------------2~---|
E|--2-2-2-2--2~-----0-0-0-0--0~---|--2-2-2-2--2~-----0-0-0-0--0~---|

   For the start of the show to make a move and let it flow on me
e|---------------------|---------------------|   |---------------|
B|---------------------|-----3-------5-------| 2 |---7---7---7---|
G|-----4-------2-------|-----2-------4-------| / |---6---6---6---|
D|-----4-------2-------|-----0-------2-------| 4 |---4---4---4---|
A|-----2-------0-------|----(0)-----(2)------|   |--(4)-(4)-(4)--|
E|----(2)-----(0)------|------------(0)------|   |---------------|

   In and out my life              And it cuts me like a knife
e|--------------------------------|--------------------------------|
B|--------------------------------|--------------------------------|
G|--------------------------------|--------------------------------|
D|-----------4~--------------2~---|-----------4~--------------2~---|
A|-----------4~--------------2~---|-----------4~--------------2~---|
E|--2-2-2-2--2~-----0-0-0-0--0~---|--2-2-2-2--2~-----0-0-0-0--0~---|

  Heal the wound stop the pain     Let our spirits flow with the rain
e|---------------------|---------------------|-----------------------|
B|---------------------|-----3-------5-------|---7---7---7-----------|
G|-----4-------2-------|-----2-------4-------|---6---6---6-----------|
D|-----4-------2-------|-----0-------2-------|---4---4---4---x--4/---|
A|-----2-------0-------|----(0)-----(2)------|--(4)-(4)-(4)--x--2/---|
E|----(2)-----(0)------|------------(0)------|-----------------------|


Solo:

e|-------10--7~~~-7---------------|-7---------------7--------------|
B|--10b--------------10-7------7--|---10--7h10p7--7--7-10----------|
G|-------------------------9b-----|--------------9--------9b--7----|
D|--------------------------------|--------------------------------|
A|--------------------------------|-----------------------------9b-|
E|--------------------------------|--------------------------------|
 |
 |Solo Rythym:
e|--------------------------------|--------------------------------|
B|--------------------------------|--------------------------------|
G|--------------------------------|--------------------------------|
D|-----------5~--------------5~---|-----------9~--------------9~---|
A|-----------5~--------------5~---|-----------9~--------------9~---|
E|--3-3-3-3--3~-----3-3-3-3--3~---|--7-7-7-7--7~-----7-7-7-7--7~---|


e|--------------------|-----------------------|-----------------------------------|
B|--------------------|-----------------------|-----------------------------------|
G|--------------------|-7-9----------------7--|--9b~~-7-9-(b)9r-7-9--(b)9r--------|
D|--------------------|-----7-9--------7-9----|----------------------------9---9--|
A|-9r-8--7-5-7--5b-5r-|----------9~~~---------|------------------------------9----|
E|--------------------|-----------------------|-----------------------------------|


e|-----------------------------------------------------|-----------------14--17~~-------|
B|-------10--7----------12--10h12p10-15--14--12h14p12--|-12-14-15--15-17-------------15-|
G|---7-----------9-11-7--------------------------------|-x------------------------------|
D|-9--9----9--9----------------------------------------|-x------------------------------|
A|-----------------------------------------------------|-x------------------------------|
E|-----------------------------------------------------|--------------------------------|

						      N.H.
e|-17b-17r-14-----------------------------------------*12--|-21b--21b--21b-21b-19-22-------|
B|-----------17-14h15p14---------14-------------------*12--|-------------------------19-22-|
G|----------------------16-14------16-14-------------------|-------------------------------|
D|----------------------------16--------16-14-12b~r--------|-------------------------------|
A|-------------------------------------------------14------|-------------------------------|
E|---------------------------------------------------------|-------------------------------|


e|-----------------22--21-19(21)tr---19~~-|----17b--14-17-14----14-----------------------------|
B|--------------19---------------21-------|--0---------------17b---17b-17r-15--17--15--15------|
G|-------19--21b--------------------------|--0-------------------------------16--16--16--16~~--|
D|--19-21---------------------------------|----------------------------------------------------|
A|----------------------------------------|----------------------------------------------------|
E|----------------------------------------|----------------------------------------------------|

    N.H.
e|--------------------------------------------|----7----------------------------------10p9p7-------------------------|
B|--*12-------12------------------------------|-10b-10-7-10p7---7---------------7-10-7------10-7-10-7-10p7--7--------|
G|-------14b----14-11-------------------------|---------------9--10p9-7--7--7-9b--------------------------10-10-7----|
D|-------------------11/12p11-----------------|------------------------9--9--------------------------------------10\-|
A|---------------------------14~~-12----------|----------------------------------------------------------------------|
E|----------------------------------14-12\10--|----------------------------------------------------------------------|


e|-------------------------------------------|----------12--10-9-10-9h10p9------10-12b~~~-|
B|-------------------------------------------|--7/10-12-------------------12-14-----------|
G|--7-6-7-6---6------------------------------|--------------------------------------------|
D|----------9---7-9-7h9p7--7-----------------|--------------------------------------------|
A|-----------------------9---9-7-5-7-0-5/9b--|--------------------------------------------|
E|-------------------------------------------|--------------------------------------------|


e|----------------------------------------------------------------------------|
B|----------------8-----------------------15p12--12h15p12h15p12--15-12--12----|
G|----7h9p7-7h9h11-11p9h11\7-7------14--14-----14--------------14-----14--14~-|
D|-7h9-----9----------------9-/14h16--16--------------------------------------|
A|----------------------------------------------------------------------------|
E|----------------------------------------------------------------------------|


e|----------------------------------|-10p9h10p9-10-9-----------------------------|
B|------------------------------10--|---------------12-11h12p11-11b--------------|
G|--14b-14~~--11-14p11p9------11----|------------------------------12-11-9-------|
D|----------------------12p9~~------|--------------------------------------12-11-|
A|----------------------------------|--------------------------------------------|
E|----------------------------------|--------------------------------------------|
 |				    |						 |
 |End Solo Rythym:		    |						 |
e|----------------------------------|--------------------------------------------|
B|------3------3------3------3------|--------------------------------------------|
G|------2------2------2------2------|--------------------------------------------|
D|------0------0------0------0------|--------------------------------------------|
A|-----(0)----(0)----(0)----(0)-----|--------------------------------------------|
E|----------------------------------|--2-2-2-2----2-2-2-2----2-2-2-2----2-2-2-2--|

	    P.H.
e|----7-----*10----------------|-----------------|
B|-10b-10-7-----7--------------|-----------------|
G|---------9-----7-------------|-----------------|
D|----------------9p7----------|-----------------|
A|-------------------7h9p7-7/5-|-----------------|
E|------------------------9----|--5b~~-----------|
 |			       |
 |			       |
e|-----------------------------|
B|-----------------------------|
G|-----------------------------|
D|----4\-----------------------|
A|----2\-----------------------|
E|-----------------------------|

[FIG: 1]


[FIG: 2]

[FIG: 3]

Outro:
e|--------------------------------|--------------------------------|
B|--------------------------------|--------------------------------|
G|--------------------------------|--------------------------------|
D|-----------4~--------------2~---|-----------4~--------------2~---|
A|-----------4~--------------2~---|-----------4~--------------2~---|
E|-\2-2-2-2--2~-----0-0-0-0--0~---|--2-2-2-2--2~-----0-0-0-0--0~---|

e|--------------------------------|--------------------------------|
B|--------------------------------|--------------------------------|
G|--------------------------------|--------------------------------|
D|-----------4~--------------2~---|-----------4~--------------2~---|
A|-----------4~--------------2~---|-----------4~--------------2~---|
E|--2-2-2-2--2~-----0-0-0-0--0~---|--2-2-2-2--2~-----0-0-0-0--0~---|


e|--------------------------------------------|
B|--------------------------------------------|
G|--------------------------------------------|
D|--------------------------------------------|
A|--------------------------------------------|
E|--2-2-2-2----2-2-2-2----2-2-2-2----2-2-2-2--|
 |					      |
 |					      |
e|--19-20-21--24~--21-20-19--20-21-24~--21-20-|
B|--------------------------------------------|
G|--------------------------------------------|
D|--------------------------------------------|
A|--------------------------------------------|
E|--------------------------------------------|


e|--------------------------------|--------------------------------|
B|--------------------------------|--------------------------------|
G|--------------------------------|--------------------------------|
D|-----------4~--------------2~---|-----------4~--------------2~---|
A|-----------4~--------------2~---|-----------4~--------------2~---|
E|--2-2-2-2--2~-----0-0-0-0--0~---|--2-2-2-2--2~-----0-0-0-0--0~---|
 |				  |				   |
 |				  |				   |
e|--------------------------------|--------------------------------|
B|-/11~~---11\9------9------------|-/11~~---11/9-----9--14/16p14~~-|
G|---------------11-----9~~~----9-|---------------11---------------|
D|--------------------------------|--------------------------------|
A|--------------------------------|--------------------------------|
E|--------------------------------|--------------------------------|


e|--------------------------------|--------------------------------|
B|--------------------------------|--------------------------------|
G|--------------------------------|--------------------------------|
D|-----------4~--------------2~---|-----------4~--------------2~---|
A|-----------4~--------------2~---|-----------4~--------------2~---|
E|--2-2-2-2--2~-----0-0-0-0--0~---|--2-2-2-2--2~-----0-0-0-0--0~---|
 |				  |				   |
 |				  |				   |
e|--------------------------------|--------------------------------|
B|-/11~~---11\9------9------------|-/11~~---11/9-----9---/16~~14~~-|
G|---------------11-----9~~~----9-|---------------11---------------|
D|--------------------------------|--------------------------------|
A|--------------------------------|--------------------------------|
E|--------------------------------|--------------------------------|

e|--------------------------------|--------------------------------|
B|--------------------------------|--------------------------------|
G|--------------------------------|--------------------------------|
D|-----------4~--------------2~---|-----------4~--------------2~---|
A|-----------4~--------------2~---|-----------4~--------------2~---|
E|--2-2-2-2--2~-----0-0-0-0--0~---|--2-2-2-2--2~-----0-0-0-0--0~---|
 |				  |				   |
 |				  |				   |
e|--------------------------------|--------------------------------|
B|--------------------------------|------/11~~------11\9~~----/14~-|
G|------/11~~----------11\9~~-----|--------------------------------|
D|--------------------------------|--------------------------------|
A|--------------------------------|--------------------------------|
E|--------------------------------|--------------------------------|


e|--------------------------------------------|
B|--------------------------------------------|
G|--------------------------------------------|
D|--------------------------------------------|
A|--------------------------------------------|
E|--2-2-2-2----2-2-2-2----2-2-2-2----2-2-2-2--|
 |					      |
 |					      |
e|--19-20-21--24~--21-20-19--20-21-24~--21-20-|
B|--------------------------------------------|
G|--------------------------------------------|
D|--------------------------------------------|
A|--------------------------------------------|
E|--------------------------------------------|


| /  slide up
| \  slide down
| h  hammer-on
| p  pull-off
| ~  vibrato
| +  harmonic
| x  Mute note
===============================================================================
Добавлено: 26.07.2012
Другие материалы по этой песне:

Страница создана 11.05.2012
http://primanota.ru/michael-schenker/broken-promises-chords.htm
Привет, Гость.
Предлагаем пройти революционный курс по гитаре.
Подарок от PrimaNota.Ru, забирай!