PrimaNota.ru - самый крупный в мире бесплатный архив песенных текстов, аккордов, табулатур и нот


Michael Schenker - Armed And Ready - таба, видео

Регистрация Запомнить меня
Войти через:  Facebook Google Twitter Vk Yandex Mail.ru

Michael Schenker - Armed And Ready - таба, видео

Печатать
Просмотров: 77
Авторы музыки: Michael Schenker, Gary John Barden
Авторы текста: Michael Schenker, Gary John Barden
                           Armed And Ready              From The Album:
                                                  Michael Schenker Group
Tabbed by Mike Carpenter mjc442@hotmail.com

Intro & Verse
    E                 D     A         E                 D     A
E|-----------------|---------------|-----------------|---------------|
B|-----------------|---------------|-----------------|---------------|
G|-----9-----9-----|-7-----2-------|-----9-----9-----|-7-----2-------|
D|-----9-----9-----|-7-----2-----2-|-----9-----9-----|-7-----2-------|
A|-----7-----7-----|-5-----0-3h4---|-----7-----7-----|-5-----0-------|
E|-0-0---0-0---0-0-|---0-0---------|-0-0---0-0---0-0-|---0-0---3-2-0-|

Chorus
    C  2 meas.        D  2 meas.      E                       D
E|-----------------|---------------|-----------------|---------------|
B|-----------------|---------------|-----------------|---------------|
G|-----------------|---------------|---------9-------|-------7---7---|
D|-5---------------|-7-------------|---------9-------|-------7---7---|
A|-3---------------|-5-------------|---------7-------|-------5---5---|
E|-----------------|---------------|-0-0-0-0---------|-0-0-0---------|

Bridge to Solo
    A B   Play 3x    B                 A B   Play 3x    C  C# D  D#
E|----------------|-----------------|----------------|---------------|
B|----------------|-----------------|----------------|---------------|
G|----------------|-----------------|----------------|-5--6--7--8----|
D|---------9------|-----------------|---------9------|-5--6--7--8----|
A|-7s9-----9------|-9---------------|-7s9-----9------|-3--4--5--6----|
E|-5s7-7-7-7--7-7-|-7-0-2-3-5-3-2-0-|-5s7-7-7-7--7-7-|---------------|

Solo   Play 3 meas.
    E                                              D        A
E|-9s10--10-10--9s10--10-10--9s10-10-10-|--------10-15-15-15-15-15-0-|
B|-8s9----9--9--8s9----9--9--8s9---9--9-|---------9-14-14-14-14-14-0-|
G|--------------------------------------|----------------------------|
D|--------------------------------------|----------------------------|
A|--------------------------------------|----------------------------|
E|--------------------------------------|----------------------------|

    E                                  D
E|----12----12-12----12-12----12-12-|-----12----12----12----12-------|
B|-15b--15b------15b------15b-------|-17b---15b---17b---15b----------|
G|----------------------------------|--------------------------------|
D|----------------------------------|--------------------------------|
A|----------------------------------|--------------------------------|
E|----------------------------------|--------------------------------|

    E
E|-------------------------------------------------------------------|
B|-15p12----12-15p12-17p12----12-15p12-17p12----12-------------------|
G|-------15----------------14----------------14----------------------|
D|-------------------------------------------------------------------|
A|-------------------------------------------------------------------|
E|-------------------------------------------------------------------|

    D                  A
E|------------------------------------------------------------------|
B|-15p12-17p12----12-15p12-17p12----12-15p12-12---------------------|
G|-------------14----------------14---------------------------------|
D|------------------------------------------------------------------|
A|------------------------------------------------------------------|
E|------------------------------------------------------------------|

     E                                  D           A
E|----------------------------------|--------------------------------|
B|-------17-19-20b--------17-20b----|-------17-20b---20b-------------|
G|-16s18------------16s18-----------|-16h18--------------------------|
D|----------------------------------|--------------------------------|
A|----------------------------------|--------------------------------|
E|----------------------------------|--------------------------------|

    E                                  D       A
E|-0--------------------------------|--------------------------------|
B|-0------------------------0-------|--------------------------------|
G|----2b-----------------------2b---|-2r-0--2p0---2-0----------------|
D|----------------------------------|-----------2------2-0-----------|
A|----------------------------------|--------------------------------|
E|----------------------------------|--------------------------------|

    E                                  D       A
E|----------------------------------|--------------------------------|
B|----------------------------------|--------------------------------|
G|----------------------------------|--------------------------------|
D|-2-1-2-----4-5-----1--------------|-2-----4-5-----1-2-4------------|
A|----------------------------------|--------------------------------|
E|--------0-------0-----------------|----0-------0-------------------|

    E                                  D
E|----------------------------------|--------------------------------|
B|----------------------------------|--------------------------------|
G|----------------------------------|--------------------------------|
D|-5-4h5p4---4-5-7--5h7p5s4---------|-5p4s2--4p2---------------------|
A|---------7------------------------|------------5b-----0------------|
E|----------------------------------|--------------------------------|

    C
E|----------------------------------|--------------------------------|
B|----------------------------------|--------------------------------|
G|----------------------------------|-------4---4-5p4h5-7-5-4--------|
D|---------4---4-5p4-5--------------|-7-5-7---7----------------------|
A|-7---6-7---7----------------------|--------------------------------|
E|----------------------------------|--------------------------------|

    D                                   D#    E
E|-------------------------|---------------|-------------------------|
B|-------------------------|---------------|--------8-8s-------------|
G|---5-4-----4-------------|---------------|--------7-7s-------------|
D|-7-----7-5---7-5-4---5-4-|---------------|-------------------------|
A|-------------------7-----|-7-5-----------|-------------------------|
E|-------------------------|-----7-6-5-3b--|-0-0-0-------------------|

           D                  E               D
E|-------------------------|---------------|-------------------------|
B|-------------------------|--------8-8s---|-------------------------|
G|-------------------------|--------7-7s---|-------------------------|
D|-------------------------|---------------|--7b -------5-7----------|
A|-------------------------|---------------|-------------------------|
E|--0-0-0-3b---------------|-0-0-0---------|-------------------------|

    C                                 D
E|---------------|-----------------|-----------------|---------------|
B|---------------|-----------------|-----------------|---------------|
G|---------------|-----------------|-2s4h5-4---------|---------------|
D|-------------4h|-5-4h5p4---4-5-7-|---------7-7s5-4-|-2-------------|
A|-7-----7-5-7---|---------7-------|-----------------|---------------|
E|---------------|-----------------|-----------------|---------------|

End Riff

E|--------------------------|----------------------|
B|--------------------------|--------------------5-|
G|--------------------------|----------------------|
D|--------------------------|----------------------|
A|------------------3--2--0-|-5--3--2--0-----------|
E|--------------------------|------------3--2--0---|
Добавлено: 13.06.2012
Другие материалы по этой песне:

Страница создана 20.04.2012
http://primanota.ru/michael-schenker/armed-and-ready-chords.htm
Привет, Гость.
Предлагаем пройти революционный курс по гитаре.
Подарок от PrimaNota.Ru, забирай!