PrimaNota.ru - самый крупный в мире бесплатный архив песенных текстов, аккордов, табулатур и нот


Michael Schenker Group - Attack Of The Mad Axeman - текст песни, таба, видео

Регистрация Запомнить меня
Войти через:  Facebook Google Twitter Vk Yandex Mail.ru

Michael Schenker Group - Attack Of The Mad Axeman - текст песни, таба, видео

Печатать
Просмотров: 124
-----------------------------------------------------------------------------
           Attack of the Mad Axeman - The Michael Schenker Group
                         One Night at Budakon -1981
                   Words and Music by Schenker and Barden
-----------------------------------------------------------------------------
Tabbed by: Duane Baldwin
E-mail: duaneandjulie@g.mail.com

Tuning: Standard

Guitar I (Heavy Overdrive)

Intro
e|--------------|------------------|-------------------------|-----------|
B|--------------|--13--15--17--15--|--15--17--17hbr--15--13--|--13h15----|
G|-----17br-----|------------------|-------------------------|-----------|
D|--------------|------------------|-------------------------|-----------|
A|--------------|------------------|-------------------------|-----------|
E|--------------|------------------|-------------------------|-----------|

e|--------------|----------15------|------15--17--17hbr--15--|--15h17----|
B|--18--18--17--|--17--18------18--|--18---------------------|-----------|
G|--------------|------------------|-------------------------|-----------|
D|--------------|------------------|-------------------------|-----------|
A|--------------|------------------|-------------------------|-----------|
E|--------------|------------------|-------------------------|-----------|

e|--17\--17\---------|---------------------------------|
B|-------------------|---------------------------------|
G|-------------------|---------------------------------|
D|-------------17\---|-----5-----3----------3----------|
A|-------------17\---|-------------3--4--5-----1-------|
E|-------------------|--3-----3-------------------3--1-|

e|--------------------------|---------------------------------|
B|-----------------------5--|---------------------------------|
G|-----------------------5--|---------------------------------|
D|-----5-----3-----------5--|-----5-----3----------3----------|
A|--------------3--4--5-----|-------------3--4--5-----1-------|
E|--3-----3-----------------|--3-----3-------------------3--1-|

e|----------------------|
B|----------------------|
G|---------------3\-----|
D|-----5-----3---3\-----|
A|----------------------|
E|--3-----3-------------|

1st Verse

e|-----------------------------------|---------------------------|
B|-----------------------------------|------------------------5--|
G|-----------------------------------|------------------------5--|
D|-----5-----3-----------3-----------|-----5-----3------------5--|
A|--------------3--4--5-----1--------|--------------3--4--5------|
E|--3-----3--------------------3--1--|--3-----3------------------|

e|-----------------------------------|--------------------------------|
B|-----------------------------------|--------------------------------|
G|-----------------------------------|--------------------------------|
D|-----5-----3-----------3-----------|-----5-----3-----------3--------|
A|--------------3--4--5-----1--------|--------------3--4--5-----------|
E|--3-----3--------------------3--1--|--3-----3-----------------1--1--|

e|-----------------------------------|---------------------------|
B|-----------------------------------|------------------------5--|
G|-----------------------------------|------------------------5--|
D|-----5-----3-----------3-----------|-----5-----3------------5--|
A|--------------3--4--5-----1--------|--------------3--4--5------|
E|--3-----3--------------------3--1--|--3-----3------------------|

e|-----------------------------------|-----------------------------------|
B|-----------------------------------|-----------------------------------|
G|-----------------------------------|-----------------------------------|
D|-----5-----3-----------3-----------|-----5-----3-----------3--3--0-----|
A|--------------3--4--5-----1--------|--------------3--4--5-----------3--|
E|--3-----3--------------------3--1--|--3-----3--------------------------|

1st Chorus

e|----------------------------------|-------------------------------------|
B|----------------------------------|-------------------------------------|
G|----------------------------------|-------------------------------------|
D|----------------------------------|-------------------------------------|
A|--1--1--1p0-----0--1-----------0--|--1--1--1p0-----0--1--1--1--3--1--0--|
E|-------------3--------3--3--3-----|-------------3-----------------------|

e|-------------------------------------|--------------------------|
B|-------------------------------------|-----------------------3--|
G|-------------------------------------|-----------------------2--|
D|-------------------------------------|-----------------------0--|
A|--1-----0--1p0-----0--1-----------0--|--1--1--1p0-----0--1------|
E|-----3----------3--------3--3--3-----|-------------3------------|

2nd Verse

e|-----------------------------------|---------------------------|
B|-----------------------------------|------------------------5--|
G|-----------------------------------|------------------------5--|
D|-----5-----3-----------3-----------|-----5-----3------------5--|
A|--------------3--4--5-----1--------|--------------3--4--5------|
E|--3-----3--------------------3--1--|--3-----3------------------|

e|-----------------------------------|--------------------------------------|
B|-----------------------------------|---------------5br--3--5--3--3--------|
G|-----------------------------------|---------------5br--3--5--3--3--------|
D|-----5-----3-----------3-----------|-----5-----3--------------------5--3--|
A|--------------3--4--5-----1--------|--------------------------------------|
E|--3-----3--------------------3--1--|--3-----3-----------------------------|

e|-----------------------------------|---------------------------|
B|-----------------------------------|------------------------5--|
G|-----------------------------------|------------------------5--|
D|-----5-----3-----------3-----------|-----5-----3------------5--|
A|--------------3--4--5-----1--------|--------------3--4--5------|
E|--3-----3--------------------3--1--|--3-----3------------------|

e|-----------------------------------|-----------------------------------|
B|-----------------------------------|-----------------------------------|
G|-----------------------------------|-----------------------------------|
D|-----5-----3-----------3-----------|-----5-----3-----------3--3--0-----|
A|--------------3--4--5-----1--------|--------------3--4--5-----------3--|
E|--3-----3--------------------3--1--|--3-----3--------------------------|

2nd Chorus

e|----------------------------------|-------------------------------------|
B|----------------------------------|-------------------------------------|
G|----------------------------------|-------------------------------------|
D|----------------------------------|-------------------------------------|
A|--1--1--1p0-----0--1-----------0--|--1--1--1p0-----0--1--1--1--3--1--0--|
E|-------------3--------3--3--3-----|-------------3-----------------------|

e|-------------------------------------|--------------------------|
B|-------------------------------------|-----------------------3--|
G|-------------------------------------|-----------------------2--|
D|-------------------------------------|-----------------------0--|
A|--1-----0--1p0-----0--1-----------0--|--1--1--1p0-----0--1------|
E|-----3----------3--------3--3--3-----|-------------3------------|

Bridge

e|---------------|---------------|---------------|--------------|
B|---------------|---------------|---------------|--------------|
G|---------------|---------------|---------------|--------------|
D|---------------|---------------|---------------|--8---3-------|
A|---------------|---------------|---------------|--6---1---3---|
E|---------------|---------------|---------------|----------1---|

e|---------------|---------------|---------------|---------------|
B|---------------|---------------|---------------|---------------|
G|---------------|---------------|---------------|---------------|
D|---------------|---------------|---------------|---------------|
A|---------------|---------------|---------------|---------------|
E|---------------|---------------|---------------|---------------|


                                  Slide Guitar
e|---------------|---------------|------------|------------------|
B|---------------|---------------|------------|------------------|
G|---------------|---------------|---10/13\---|--5--5/9/10/12\9--|
D|---------------|---------------|------------|------------------|
A|---------------|---------------|------------|------------------|
E|---------------|---------------|------------|------------------|

e|---------------|---------------|---------------|--------------|
B|---------------|---------------|---------------|--------------|
G|---------------|---------------|---------------|--------------|
D|---------------|---------------|---------------|--8---3-------|
A|---------------|---------------|---------------|--6---1---3---|
E|---------------|---------------|---------------|----------1---|

e|---------------|---------------|---------------|---------------|
B|---------------|---------------|---------------|---------------|
G|---------------|---------------|---------------|---------------|
D|---------------|---------------|---------------|---------------|
A|---------------|---------------|---------------|---------------|
E|---------------|---------------|---------------|---------------|

                                                 Feed Back
e|---------------|-------------------------|-------|
B|---------------|-------------------------|-------|
G|---------------|-------------------------|-------|
D|---------------|-------------------------|-------|
A|---------------|--1--1--1p0-----0--1-----|-------|
E|---------------|-------------3--------3--|---3---|

Outro Solo

  Pick scrape
e|---------------|------------------|--------------------------------|
B|---------------|--18------18------|--18---18---18---18---18---18---|
G|---------------|--17b-----17b-----|--17b--17b--17b--17b--17b--17b--|
D|---------------|------------------|--------------------------------|
A|---------------|------------------|--------------------------------|
E|---------------|------------------|--------------------------------|

e|------------------------------------|------------------15------18b--|
B|------------------------------------|----------15----------15-------|
G|--17p15------17p15------17--15------|--17----------15---------------|
D|---------17---------17----------17--|------17-----------------------|
A|------------------------------------|-------------------------------|
E|------------------------------------|-------------------------------|

e|--20b-----20b--|--22p18------18------18-------18------18-------18------18--|
B|---------------|---------20--------------21b--------------21b--------------|
G|---------------|-----------------19---------------19---------------19------|
D|---------------|-----------------------------------------------------------|
A|---------------|-----------------------------------------------------------|
E|---------------|-----------------------------------------------------------|

e|--20b--18--15------------------------------------------|
B|---------------18--15----------------------------------|
G|-----------------------17br--15------15h17--15~~~~~~\--|
D|---------------------------------17--------------------|
A|-------------------------------------------------------|
E|-------------------------------------------------------|

e|---------3-------------------------|---------------------------------------|
B|--3--6b-----6p5p3-----3------------|---------------------------------------|
G|-------------------5-----6p5p3-----|-3-------------------------------------|
D|--------------------------------5--|----5--3h5p3-----3---------------------|
A|-----------------------------------|--------------5------5--3h5p3-----3----|
E|-----------------------------------|-------------------------------6-----6-|

e|-----------------------|------------------|--3--6b--6pbr--5--3------------|
B|-----------------------|------------------|---------------------6--5--3p--|
G|-----------------------|------------------|-------------------------------|
D|-----------------------|------------------|-------------------------------|
A|---------1--3--1--3br--|--1h3p1-----3--1--|-------------------------------|
E|--3b--3----------------|---------3--------|-------------------------------|

e|--3--6b--6pbr--5--3------------------|------------------3--6b--6h8p6-----6-|
B|---------------------6--5--3h5p3-----|---------------3----------------8----|
G|----------------------------------5--|-6p5p3-----5b------------------------|
D|-------------------------------------|--------5----------------------------|
A|-------------------------------------|-------------------------------------|
E|-------------------------------------|-------------------------------------|

e|-----6-----------6-----6-------------|-------------------------15------18--|
B|--8-----9b~~~-------8-----9b~~~~-9\--|---------15------15--18------15------|
G|-------------------------------------|-------------------------------------|
D|-------------------------------------|--15/17------17----------------------|
A|-------------------------------------|-------------------------------------|
E|-------------------------------------|-------------------------------------|

e|--20--20b--20b--20b--20b--18--20--18--20--|
B|------------------------------------------|
G|------------------------------------------|
D|------------------------------------------|
A|------------------------------------------|
E|------------------------------------------|

e|--20hb--18--20hb--18--20hb--18--20hb--18--20hb--18--22/1qb~~~~------|
B|--------------------------------------------------------------------|
G|--------------------------------------------------------------------|
D|--------------------------------------------------------------------|
A|--------------------------------------------------------------------|
E|--------------------------------------------------------------------|

e|--22hpb1/qb--22hpb1/qb--22hpb1/qb--22hpb1/qb--22hpb1/qb--22br--18--|
B|-------------------------------------------------------------------|
G|-------------------------------------------------------------------|
D|-------------------------------------------------------------------|
A|-------------------------------------------------------------------|
E|-------------------------------------------------------------------|

e|--22--20--18h20p18------18------18--|-------------------------15--18--18b--|
B|--------------------20--------------|---------15------15--18---------------|
G|----------------------------19------|--------------------------------------|
D|------------------------------------|--15/17------17-----------------------|
A|------------------------------------|--------------------------------------|
E|------------------------------------|--------------------------------------|

e|--20--18------------------------|-------------|-------------|-------------|
B|----------20--------------------|-------------|-------------|-------------|
G|--------------17br--15--17--17--|-------------|-------------|-------------|
D|--------------------------------|-------------|-------------|-------------|
A|--------------------------------|--8h10---6---|--6h8---5----|--8h10---6---|
E|--------------------------------|-------------|-------------|-------------|

e|--------------------------------|-------------|-------------|-------------|
B|--------------------------------|-------------|-------------|-------------|
G|--------------------------------|-------------|-------------|-------------|
D|--7hb--7--5h7p5-----5-----------|-------------|-------------|-------------|
A|-----------------8--------5--8--|--8h10---6---|--6h8---5----|--8h10---6---|
E|-----------------------6--------|-------------|-------------|-------------|

e|---------------|--------------------------|----------------------------|
B|--10--10br--8--|----------15--16--16--15--|--16--15h16p15------15--15--|
G|---------------|------17------------------|----------------17----------|
D|---------------|--17----------------------|----------------------------|
A|---------------|--------------------------|----------------------------|
E|---------------|--------------------------|----------------------------|

e|--15--17--18--17--15--18p17p15------15--|-------------------|
B|--------------------------------18------|--18b----(18)/20---|
G|----------------------------------------|-------------------|
D|----------------------------------------|-------------------|
A|----------------------------------------|-------------------|
E|----------------------------------------|-------------------|

e|--18--20--20b--20b--|--21hbr--18-------------|--22b1/q----22hpb1/qb----|
B|--------------------|-------------20p18------|-------------------------|
G|--------------------|--------------------19--|-------------------------|
D|--------------------|------------------------|-------------------------|
A|--------------------|------------------------|-------------------------|
E|--------------------|------------------------|-------------------------|

e|--22hpb1/qb----22\--|--20b--20--18--20--17h18p20------18--|
B|--------------------|-----------------------------20------|
G|--------------------|-------------------------------------|
D|--------------------|-------------------------------------|
A|--------------------|-------------------------------------|
E|--------------------|-------------------------------------|

e|--17--15--17--13--15--10--13------10------------------------------|
B|------------------------------13------11--13------11--------------|
G|----------------------------------------------12------10--12------|
D|--------------------------------------------------------------12--|
A|------------------------------------------------------------------|
E|------------------------------------------------------------------|

e|-----------------------------------|--------------|------------|
B|-----------------------------------|--------------|------------|
G|--10-------------------------------|------5b------|------------|
D|------10--12--8--10--10br--8--10\--|--------------|------------|
A|-----------------------------------|--------------|------------|
E|-----------------------------------|--------------|------------|


 *Drop each d bend by half step
e|-------------------------------------|
B|-------------------------------------|
G|--5pb--*5pb--5pb--5pb--5pb--5--3-----|
D|----------------------------------5--|
A|-------------------------------------|
E|-------------------------------------|

  Slight Palm mute
e|-----------------------------------------------------------------|
B|-----------------------------------------------------------------|
G|-----------------------------------------------------------------|
D|--5p3p0--5p3p0--5p3p0--5p3p0--5p3p0--5p3p0--5p3p0--5p3p0--5p3p0--|
A|-----------------------------------------------------------------|
E|-----------------------------------------------------------------|

e|-----------------------------------------------------------------|
B|-----------------------------------------------------------------|
G|-----------------------------------------------------------------|
D|--5p3p0--5p3p0--5p3p0--5p3p0--5p3p0--5p3p0--5p3p0--5p3p0--5p3p0--|
A|-----------------------------------------------------------------|
E|-----------------------------------------------------------------|

e|----------------------------------------|-----------|-----------|
B|----------------------------------------|-----------|-----------|
G|----------------------------------------|-----------|-----------|
D|--5p3p0--5p3p0--5p3p0--5p3p0--5p3p0--5--|-----------|-----------|
A|----------------------------------------|-----------|-----5-----|
E|----------------------------------------|-----------|-----3-----|

Guitar II (Heavy Overdrive)

Intro

e|-------------------|--------------|------------------|
B|-------------------|--------------|------------------|
G|--------------5----|----------5---|--------------5---|
D|--3---0-------5----|--5-------5---|--3---0-------5---|
A|--1---0---5---3----|--3---0---3---|--1---0---5---3---|
E|----------3--------|--------------|----------3-------|

e|-----------------------------|
B|-----------------------------|
G|-----------------------------|
D|--7--7--7--7--7--7--7--7--7--|
A|--5--5--5--5--5--5--5--5--5--|
E|-----------------------------|

e|-------------------|--------------|------------------|
B|-------------------|--------------|------------------|
G|--------------5----|----------5---|--------------5---|
D|--3---0-------5----|--5-------5---|--3---0-------5---|
A|--1---0---5---3----|--3---0---3---|--1---0---5---3---|
E|----------3--------|--------------|----------3-------|

e|--------------------------------------|--------------------------------|
B|--------------------------------------|--------------------------------|
G|--------------------------------------|--------------------------------|
D|--7--7--7--7--7--7--7--7--7--7--7--7--|--7--7--7--7--7--7--7--7--7--7--|
A|--5--5--5--5--5--5--5--5--5--5--5--5--|--5--5--5--5--5--5--5--5--5--5--|
E|--------------------------------------|--------------------------------|

e|--------------------------|---------------------------------|
B|-----------------------5--|---------------------------------|
G|-----------------------5--|---------------------------------|
D|-----5-----3-----------5--|-----5-----3----------3----------|
A|--------------3--4--5-----|-------------3--4--5-----1-------|
E|--3-----3-----------------|--3-----3-------------------3--1-|

e|------------------|
B|------------------|
G|------------------|
D|-----5-----3------|
A|------------------|
E|--3-----3---------|

1st Verse

e|-----------------------------------|---------------------------|
B|-----------------------------------|------------------------5--|
G|-----------------------------------|------------------------5--|
D|-----5-----3-----------3-----------|-----5-----3------------5--|
A|--------------3--4--5-----1--------|--------------3--4--5------|
E|--3-----3--------------------3--1--|--3-----3------------------|

e|-----------------------------------|--------------------------------|
B|-----------------------------------|--------------------------------|
G|-----------------------------------|--------------------------------|
D|-----5-----3-----------3-----------|-----5-----3-----------3--------|
A|--------------3--4--5-----1--------|--------------3--4--5-----------|
E|--3-----3--------------------3--1--|--3-----3-----------------1--1--|

e|-----------------------------------|---------------------------|
B|-----------------------------------|------------------------5--|
G|-----------------------------------|------------------------5--|
D|-----5-----3-----------3-----------|-----5-----3------------5--|
A|--------------3--4--5-----1--------|--------------3--4--5------|
E|--3-----3--------------------3--1--|--3-----3------------------|

e|-----------------------------------|-----------------------------------|
B|-----------------------------------|-----------------------------------|
G|-----------------------------------|-----------------------------------|
D|-----5-----3-----------3-----------|-----5-----3-----------3--3--0-----|
A|--------------3--4--5-----1--------|--------------3--4--5-----------3--|
E|--3-----3--------------------3--1--|--3-----3--------------------------|

1st Chorus

e|-----------------------------------|--------------------------------------|
B|-----------------------------------|--------------------------------------|
G|-----------------------------------|--------------------------------------|
D|--3--3--3-----------3--------------|--3--3--3-----------3--3--3--5--3-----|
A|--1--1--1p0--5---0--1--5--5--5--0--|--1--1--1p0--5---0--1--1--1--3--1--0--|
E|-------------3---------3--3--3-----|-------------3------------------------|

e|---------------------------------------|--------------------------|
B|---------------------------------------|-----------------------3--|
G|---------------------------------------|-----------------------2--|
D|--3---------3-----------3--------------|--3--3--3-----------3--0--|
A|--1--5---0--1p0--5---0--1--5--5--5--0--|--1--1--1p0--5---0--1-----|
E|-----3-----------3---------3--3--3-----|-------------3------------|

2nd Verse

e|-----------------------------------|---------------------------|
B|-----------------------------------|------------------------5--|
G|-----------------------------------|------------------------5--|
D|-----5-----3-----------3-----------|-----5-----3------------5--|
A|--------------3--4--5-----1--------|--------------3--4--5------|
E|--3-----3--------------------3--1--|--3-----3------------------|

e|-----------------------------------|--------------------------------|
B|-----------------------------------|--------------------------------|
G|-----------------------------------|--------------------------------|
D|-----5-----3-----------3-----------|-----5-----3-----------3--------|
A|--------------3--4--5-----1--------|--------------3--4--5-----------|
E|--3-----3--------------------3--1--|--3-----3-----------------1--1--|

e|-----------------------------------|---------------------------|
B|-----------------------------------|------------------------5--|
G|-----------------------------------|------------------------5--|
D|-----5-----3-----------3-----------|-----5-----3------------5--|
A|--------------3--4--5-----1--------|--------------3--4--5------|
E|--3-----3--------------------3--1--|--3-----3------------------|

e|-----------------------------------|-----------------------------------|
B|-----------------------------------|-----------------------------------|
G|-----------------------------------|-----------------------------------|
D|-----5-----3-----------3-----------|-----5-----3-----------3--3--0-----|
A|--------------3--4--5-----1--------|--------------3--4--5-----------3--|
E|--3-----3--------------------3--1--|--3-----3--------------------------|

2nd Chorus

e|-----------------------------------|--------------------------------------|
B|-----------------------------------|--------------------------------------|
G|-----------------------------------|--------------------------------------|
D|--3--3--3-----------3--------------|--3--3--3-----------3--3--3--5--3-----|
A|--1--1--1p0--5---0--1--5--5--5--0--|--1--1--1p0--5---0--1--1--1--3--1--0--|
E|-------------3---------3--3--3-----|-------------3------------------------|

e|---------------------------------------|--------------------------|
B|---------------------------------------|-----------------------3--|
G|---------------------------------------|-----------------------2--|
D|--3---------3-----------3--------------|--3--3--3-----------3--0--|
A|--1--5---0--1p0--5---0--1--5--5--5--0--|--1--1--1p0--5---0--1-----|
E|-----3-----------3---------3--3--3-----|-------------3------------|

Rest for 29 measures of bridge

e|---------------------------|----------|
B|---------------------------|----------|
G|---------------------------|----------|
D|--3--3--3-----------3------|----------|
A|--1--1--1p0--5---0--1---5--|----5-----|
E|-------------3----------3--|----3-----|

Outro

e|--------------|--------------------------|--------------|
B|--------------|--------------------------|--------------|
G|--------------|--------------------------|--------------|
D|--5---8---10--|--10--10--10--10--10--10--|--5---8---10--|
A|--5---8---10--|--10--10--10--10--10--10--|--5---8---10--|
E|--3---6---8---|--8---8---8---8---8---8---|--3---6---8---|

e|--------------------------|--------------|--------------------------|
B|--------------------------|--------------|--------------------------|
G|--------------------------|--------------|--------------------------|
D|--10--10--10--10--10--10--|--5---8---10--|--10--10--10--10--10--10--|
A|--10--10--10--10--10--10--|--5---8---10--|--10--10--10--10--10--10--|
E|--8---8---8---8---8---8---|--3---6---8---|--8---8---8---8---8---8---|

e|--------------|--------------------------|--------------|
B|--------------|--------------------------|--------------|
G|--------------|--------------------------|--------------|
D|--5---8---10--|--10--10--10--10--10--10--|--5---8---10--|
A|--5---8---10--|--10--10--10--10--10--10--|--5---8---10--|
E|--3---6---8---|--8---8---8---8---8---8---|--3---6---8---|

e|--------------------------|--------------|--------------------------|
B|--------------------------|--------------|--------------------------|
G|--------------------------|--------------|--------------------------|
D|--10--10--10--10--10--10--|--5---8---10--|--10--10--10--10--10--10--|
A|--10--10--10--10--10--10--|--5---8---10--|--10--10--10--10--10--10--|
E|--8---8---8---8---8---8---|--3---6---8---|--8---8---8---8---8---8---|

e|--------------|--------------------------|--------------|
B|--------------|--------------------------|--------------|
G|--------------|--------------------------|--------------|
D|--5---8---10--|--10--10--10--10--10--10--|--5---8---10--|
A|--5---8---10--|--10--10--10--10--10--10--|--5---8---10--|
E|--3---6---8---|--8---8---8---8---8---8---|--3---6---8---|

e|--------------------------|--------------|--------------------------|
B|--------------------------|--------------|--------------------------|
G|--------------------------|--------------|--------------------------|
D|--10--10--10--10--10--10--|--5---8---10--|--10--10--10--10--10--10--|
A|--10--10--10--10--10--10--|--5---8---10--|--10--10--10--10--10--10--|
E|--8---8---8---8---8---8---|--3---6---8---|--8---8---8---8---8---8---|

e|--------------|--------------------------|--------------|
B|--------------|--------------------------|--------------|
G|--------------|--------------------------|--------------|
D|--5---8---10--|--10--10--10--10--10--10--|--5---8---10--|
A|--5---8---10--|--10--10--10--10--10--10--|--5---8---10--|
E|--3---6---8---|--8---8---8---8---8---8---|--3---6---8---|

e|--------------------------|--------------|--------------------------|
B|--------------------------|--------------|--------------------------|
G|--------------------------|--------------|--------------------------|
D|--10--10--10--10--10--10--|--5---8---10--|--10--10--10--10--10--10--|
A|--10--10--10--10--10--10--|--5---8---10--|--10--10--10--10--10--10--|
E|--8---8---8---8---8---8---|--3---6---8---|--8---8---8---8---8---8---|

e|--------------|--------------------------|--------------|
B|--------------|--------------------------|--------------|
G|--------------|--------------------------|--------------|
D|--5---8---10--|--10--10--10--10--10--10--|--5---8---10--|
A|--5---8---10--|--10--10--10--10--10--10--|--5---8---10--|
E|--3---6---8---|--8---8---8---8---8---8---|--3---6---8---|

e|--------------------------|------------|------------|------------|
B|--------------------------|------------|------------|------------|
G|--------------------------|------------|------------|------------|
D|--10--10--10--10--10--10--|--3---5-----|--3---------|--3---5-----|
A|--10--10--10--10--10--10--|--1---3-----|--1---5-----|--1---3-----|
E|--8---8---8---8---8---8---|------------|------3-----|------------|

e|--------------------------|------------|------------|------------|
B|--------------------------|------------|------------|------------|
G|--------------------------|------------|------------|------------|
D|--5--5--5--5--5--5--5--5--|--3---5-----|--3---------|--3---5-----|
A|--5--5--5--5--5--5--5--5--|--1---3-----|--1---5-----|--1---3-----|
E|--3--3--3--3--3--3--3--3--|------------|------3-----|------------|

e|--------------------------|------------|------------|------------|
B|--------------------------|------------|------------|------------|
G|--------------------------|------------|------------|------------|
D|--5--5--5--5--5--5--5--5--|--3---5-----|--3---------|--3---5-----|
A|--5--5--5--5--5--5--5--5--|--1---3-----|--1---5-----|--1---3-----|
E|--3--3--3--3--3--3--3--3--|------------|------3-----|------------|

e|--------------------------|------------|------------|------------|
B|--------------------------|------------|------------|------------|
G|--------------------------|------------|------------|------------|
D|--5--5--5--5--5--5--5--5--|--3---5-----|--3---------|------3-----|
A|--5--5--5--5--5--5--5--5--|--1---3-----|--1---5-----|------1-----|
E|--3--3--3--3--3--3--3--3--|------------|------3-----|------------|

e|-------|----------|----------|-------|----------|----------|----------|
B|-------|----------|----------|-------|----------|----------|----------|
G|-------|----------|----------|-------|----------|----------|----------|
D|--3----|----5-----|----------|--5----|----------|----------|----------|
A|--1----|----3-----|----------|--3----|-----5----|----------|----------|
E|-------|----------|----------|-------|-----3----|----------|----------|

e|----------|----------|----------|----------|----------|
B|----------|----------|----------|----------|----------|
G|----------|----------|----------|----------|----------|
D|----------|----------|----------|----------|----------|
A|----5-----|----------|----------|----------|----5-----|
E|----3-----|----------|----------|----------|----3-----|
      /
      /


************************************

| /   slide up
| \   slide down
| h   hammer-on
| p   pull-off
| ~   vibrato
| +   harmonic
| x   Mute note
| b   Bend
| pb  Pre-bend
| br  Bend release
| pbr Pre-bend release
| brb Bend release bend
| hpb1/qb Prebend half step raise 1 and a quarter tone
| b1/q Bend one and a quarter tone
************************************
Добавлено: 25.12.2013
Вам также может быть интересно:
Другие материалы по этой песне:

Страница создана 22.11.2013
http://primanota.ru/michael-schenker-group/attack-of-the-mad-axeman-chords.htm
Привет, Гость.
Предлагаем пройти революционный курс по гитаре.
Подарок от PrimaNota.Ru, забирай!