PrimaNota.ru - самый крупный в мире бесплатный архив песенных текстов, аккордов, табулатур и нот


Michael Penn - Out Of My Hands - аккорды и текст, видео

Регистрация Запомнить меня
Войти через:  Facebook Google Twitter Vk Yandex Mail.ru

Michael Penn - Out Of My Hands - аккорды и текст, видео

Печатать
Просмотров: 90
Out Of My Hands
Michael Penn
OUT OF MY HANDS                             Michael Penn

Transcribed by Mike Ferenczy   Sat. August 12, 2000
e-mail:-ferenc59@excite.com

I'm surprised this song hasn't been transcribed before as it is one of his
most popular.  It has an unusual tempo that resembles a ticking clock, no
accident I'm sure, he has a genius for innuendo in the lyrics which he then
marries with the perfect tempo, vocal effects and melody.

[ I play it finger-style.  Any corrections would be appreciated as he has a
penchant for unusual chord voicings which have always been a pain but I wish
I knew the proper ones.

Capo 4th fr.    Standard tuning, all positions are relative to capo. 


Verse 1
Ab :---------3------|-------------0-h1---|----1-------3---|
Eb :-1-------0----1-|p0---1-h3----0-h1---|----1-------1---|
B  :-----0----------|-------------0-h2---|----2---0-------|
Gb :----------------|---------------h3---|----3-----------|
Db :-3------------2-|-----2----------3---|------------0---|
Ab :----------------|----------------1---|-1--------------|


Ab :------0-h1------1|------3---------|------------------|
Eb :1-----0-h1------1|------1----1----|----------1-h3---0|
B  :--2---0-h2---2--2|--2---2------2--|--0-----2---------|
Gb :---------3-------|----------------|2-----------------|
Db :-----------------|------0---------|------------------|
Ab :---------1---1---|----------------|-----1------------|
 
                       Verse 2
Ab :------3---------|0--0-0-0-0-0---0-1-1|1-1-1--0--------0-|
Eb :------0---------|0--1-1-1-1-1---0-1-1|1-1-1--0--1-------|
B  :-0--------0-----|0--2-2-2-2-2---0-2-2|2-2-2--0-----0----|
Gb :----------------|---2-2-2-2-2-----3-3|3-3-3-----------2-|
Db :----------------|---0-0-0-0-0-----3-3|3-3-3-----3-------|
Ab :----3-----------|-----------------1-1|1-1-1-------------|

                     ** Chorus(Repeat phrase 3 times)*last time coda
Ab :----------0-----|-0-----3-----1--|----1------3----|
Eb :-1--0--------0--|-1-----3-----1--|----1------1----|
B  :-------0--------|-2-----0-----2--|--------2-------|
Gb :----------2-----|-2-----0-----3--|----------------|
Db :----2-----------|-0-----2-----3--|----------------|
Ab :----------------|-------3-----1--|----1-----------|

Ab :----------------|---------------3--|----------------|
Eb :1---------------|1-h3---0-------3--|----------------|
B  :--2---0------2--|---------0--------|-0--------------|
Gb :----------------|------------------|----------------|
Db :----------------|------------------|----------------|
Ab :----------1-----|------------3-----|----------------|

*coda
Last time only
Ab :-1---0----------|
Eb :---1-1----------|
B  :-----0----------|
Gb :-----2----------|
Db :-----3----------|
Ab :-----3----------|


(Verse 1)
C        C/B          F     Am7         F      Am7         F-F6-G 
I feel 

C C/B               F  Am7          F  Am7         F-F6-F-G   
I am the clock

Am  F   C Em - Am  F    C  Em - F G 
And every

(Chorus)
Am   G      F - Am  G      F      Am  G      F     F6-F-G   
out of my hands 
                  

(Verse 2)
C                C/B          F   Am7            F      Am7           
And if you tuned 

C   C/B   F  Am7  F  Am7  F - F6 - G 
My mission's 
                             
Am  F   C   Em  -  Am    F    C Em  F   G 
It's like a desert  

(Chorus)
Am   G      F   Am   G    F      Am    G    F
out of my hands
 
(Instrumental Break) - Play verse once

(Verse 3)
Am  F  C    Em   Am   F   C  Em F G
G come up and check 
                     
Am   G    F       Am    G    F      Am   G     F      C
Out of my hands
     
Добавлено: 18.09.2013
Другие материалы по этой песне:
  • Аккорды и текст

Страница создана 04.06.2012
http://primanota.ru/michael-penn/out-of-my-hands-chords.htm
Привет, Гость.
Предлагаем пройти революционный курс по гитаре.
Подарок от PrimaNota.Ru, забирай!