PrimaNota.ru - самый крупный в мире бесплатный архив песенных текстов, аккордов, табулатур и нот


Michael Monroe - Soul Surrender - бас-таба, видео

Регистрация Запомнить меня
Войти через:  Facebook Google Twitter Vk Yandex Mail.ru

Michael Monroe - Soul Surrender - бас-таба, видео

Печатать
Просмотров: 70
Уроки эстрадного вокала в Санкт-Петербурге
-------------------------------------------------------------------------------
                                 Soul Surrender - Michael Monroe
-------------------------------------------------------------------------------

Tabbed by: ChrisT

From the Album: Horns and Halos (2013) 

Tuning: Standard

Intro
G|----------------------------------------------|
D|o--------------------------------------------o|
A|o--5--6-7-3--4-5-----------------------------o|
E|-----------------5--5-5--5-5-3-5--5-5--5-5----|

G|------------------------------------------------------------------------|
D|------------------------------------------------------------------------|
A|---5--6-7-3--4-5--------------------------------------------------------|
E|-----------------1--1-1--1-1--3--3-3--3-3--5--5-5--5-5-3-5--5-5--5-5----|

Chorus
G|----------------------------------------------|
D|o--------------------------------------------o|
A|o--5--6-7-3--4-5-----------------------------o|
E|-----------------5--5-5--5-5-3-5--5-5--5-5----|

G|------------------------------------------------------------------------|
D|------------------------------------------------------------------------|
A|---5--6-7-3--4-5--------------------------------------------------------|
E|-----------------1--1-1--1-1--3--3-3--3-3--5--5-5--5-5-3-5--5-5--5-5----|

Verse
G|--------------------------------------------------|
D|o----------------7--7-7---------------------------|
A|o-------7-7---5----------------7-7----5--5-5------|
E|---5--8-----8-----------8-5--8-----8---------8----|

G|-----------------------------------------|
D|-----------------7-7--------------------o|
A|--------7-7---5-------5-7------5-7--7---o|
E|---5--8-----8--------------7-7-----------|

G|---------------------------------------------------------------------|
D|---------------------------------------------------------------------|
A|---------------------------------------------------------------------|
E|---1-1-1-1-1-1-1-1-0-0-0-0-0-0-0-0-1-1-1-1-1-1-1-1-3-3-3-3-3-3-3-3---|

Chorus
G|----------------------------------------------|
D|o--------------------------------------------o|
A|o--5--6-7-3--4-5-----------------------------o|
E|-----------------5--5-5--5-5-3-5--5-5--5-5----|

G|------------------------------------------------------------------------|
D|------------------------------------------------------------------------|
A|---5--6-7-3--4-5--------------------------------------------------------|
E|-----------------1--1-1--1-1--3--3-3--3-3--5--5-5--5-5-3-5--5-5--5-5----|

Verse
G|--------------------------------------------------|
D|o----------------7--7-7---------------------------|
A|o-------7-7---5----------------7-7----5--5-5------|
E|---5--8-----8-----------8-5--8-----8---------8----|

G|-----------------------------------------|
D|-----------------7-7--------------------o|
A|--------7-7---5-------5-7------5-7--7---o|
E|---5--8-----8--------------7-7-----------|

G|---------------------------------------------------------------------|
D|---------------------------------------------------------------------|
A|---------------------------------------------------------------------|
E|---1-1-1-1-1-1-1-1-0-0-0-0-0-0-0-0-1-1-1-1-1-1-1-1-3-3-3-3-3-3-3-3---|

Chorus
G|----------------------------------------------|
D|o--------------------------------------------o|
A|o--5--6-7-3--4-5-----------------------------o|
E|-----------------5--5-5--5-5-3-5--5-5--5-5----|

G|--------------------------------------------------------------|
D|--------------------------------------------------------------|
A|---5--6-7-3--4-5----------------------------------------------|
E|-----------------1--1-1--1-1--3--3-3--3-3--5--5-5--5-5-/15\---|

Guitar Solo
G|-------------------------------------------------------------------------|
D|o-----------------------------------------------------------------------o|
A|o----------5--5--5---------5--5--5---------5--5--5--7--7--7-5-7--7--7---o|
E|---5--5--5---------5--5--5---------5--5--5-------------------------------|

G|----------------------------------------------------------------------------|
D|----------------------------------------------------------------------------|
A|--8-8-8-8-8-8-8-8-7-7-7-7-7-7-7-7-8-8-8-8-8-8-8-8-10-10-10-10-10-10-10-10---|
E|----------------------------------------------------------------------------|

Chorus
G|----------------------------------------------|
D|o--------------------------------------------o|
A|o--5--6-7-3--4-5-----------------------------o|
E|-----------------5--5-5--5-5-3-5--5-5--5-5----|

G|----------------------------------------------------|
D|----------------------------------------------------|
A|---5--6-7-3--4-5-5--6-7-3--4-5-3--4-5-3--4-5--------|
E|---------------------------------------------5------|



| /  slide up
| \  slide down
| h  hammer-on
| p  pull-off
| ~  vibrato
| +  harmonic
| x  Mute note
===============================================================================

Добавлено: 27.12.2013
Другие материалы по этой песне:
  • Аккорды и текст

Страница создана 27.12.2013
http://primanota.ru/michael-monroe/soul-surrender-chords.htm
Привет, Гость.
Предлагаем пройти революционный курс по гитаре.
Подарок от PrimaNota.Ru, забирай!