PrimaNota.ru - самый крупный в мире бесплатный архив песенных текстов, аккордов, табулатур и нот


Michael Monroe - Do Anything You Wanna Do - бас-таба, видео

Регистрация Запомнить меня
Войти через:  Facebook Google Twitter Vk Yandex Mail.ru

Michael Monroe - Do Anything You Wanna Do - бас-таба, видео

Печатать
Просмотров: 67
-------------------------------------------------------------------------------
                             Do Anything You Wanna Do - Michael Monroe
-------------------------------------------------------------------------------

Cover of the Eddie and the Hot Rods song - faster with less fills.

Tabbed by: ChrisT

From the Album: Whatcha Want 

Tuning: Standard

Intro
G|---------------------------------------------------------|
D|o-------------------------------------------------------o|
A|o-------------------------------------------------------o|
E|---0--0-0--0-0--5--5-5--5-4--2--2-2--2-2--2--2-2--2-2----|

Verse
G|---------------------------------------------------------|
D|---------------------------------------------------------|
A|---------------------------------------------------------|
E|---7--7-7--7-7--7--7-7--7-7--0--0-0--0-0--5--5-5--5-5----|

G|---------------------------------------------------------|
D|---------------------------------------------------------|
A|---------------------------------------------------------|
E|---7--7-7--7-7--7--7-7--7-7--0--0-0--0-0--0--0-0--0-0----|

Pre chorus
G|---------------------------------------------|
D|--------4---------6---------7---------9------|
A|---------------------------------------------|
E|---2--2---2--4--4---4--5--5---5--7--7---7----|

G|---------------------------------------------------|
D|--------7---------6---------4----------------------|
A|---------------------------------------------------|
E|---5--5---5--4--4---4--2--2---2--0--0-0--0-5-0/----|

Chorus
G|---------------------------------------------------------|
D|o-------------------------------------------------------o|
A|o-------------------------------------------------------o|
E|---5--5-5--5-5--7--7-7--7-7--0--0-0--0-0--5--0-0--0-0----|

G|---------------------------------------------|
D|--------4---------6---------7---------9------|
A|---------------------------------------------|
E|---2--2---2--4--4---4--5--5---5--7--7---7----|

G|--------------------------------------------------|
D|--------7---------6---------4---------------------|
A|--------------------------------------------------|
E|---5--5---5--4--4---4--2--2---2--0--0-0--0-5-0----|

G|---------------------------------------------------------|
D|o-------------------------------------------------------o|
A|o-------------------------------------------------------o|
E|---0--0-0--0-0--5--5-5--5-4--2--2-2--2-2--2--2-2--2-2----|

Verse
G|---------------------------------------------------------|
D|---------------------------------------------------------|
A|---------------------------------------------------------|
E|---7--7-7--7-7--7--7-7--7-7--0--0-0--0-0--5--5-5--5-5----|

G|---------------------------------------------------------|
D|---------------------------------------------------------|
A|---------------------------------------------------------|
E|---7--7-7--7-7--7--7-7--7-7--0--0-0--0-0--0--0-0--0-0----|

Pre chorus
G|---------------------------------------------|
D|--------4---------6---------7---------9------|
A|---------------------------------------------|
E|---2--2---2--4--4---4--5--5---5--7--7---7----|

G|--------------------------------------------------|
D|--------7---------6---------4---------------------|
A|--------------------------------------------------|
E|---5--5---5--4--4---4--2--2---2--0--0-0--0-5-0----|

Chorus
G|---------------------------------------------------------|
D|o-------------------------------------------------------o|
A|o-------------------------------------------------------o|
E|---5--5-5--5-5--7--7-7--7-7--0--0-0--0-0--5--0-0--0-0----|

G|---------------------------------------------|
D|--------4---------6---------7---------9------|
A|---------------------------------------------|
E|---2--2---2--4--4---4--5--5---5--7--7---7----|

G|--------------------------------------------------|
D|--------7---------6---------4---------------------|
A|--------------------------------------------------|
E|---5--5---5--4--4---4--2--2---2--0--0-0--0-5-0----|

Guitar Solo                                       Repeat x3
G|---------------------------------------------------------|
D|o-------------------------------------------------------o|
A|o-------------------------------------------------------o|
E|---0--0-0--0-0--5--5-5--5-4--2--2-2--2-2--2--2-2--2-2----|

G|-----------------------------------------------------------|
D|-----------------------------------------------------------|
A|-----------------------------------------------------------|
E|---0--0-0--0-0--5--5-5--5-4--2--2-2--2-2-/14-14-14-14-14---|

Verse
G|---------------------------------------------------------|
D|---------------------------------------------------------|
A|---------------------------------------------------------|
E|---7--7-7--7-7--7--7-7--7-7--0--0-0--0-0--5--5-5--5-5----|

G|---------------------------------------------------------|
D|---------------------------------------------------------|
A|---------------------------------------------------------|
E|---7--7-7--7-7--7--7-7--7-7--0--0-0--0-0--0--0-0--0-0----|

Pre Chorus
G|---------------------------------------------|
D|--------4---------6---------7---------9------|
A|---------------------------------------------|
E|---2--2---2--4--4---4--5--5---5--7--7---7----|

G|--------------------------------------------------|
D|--------7---------6---------4---------------------|
A|--------------------------------------------------|
E|---5--5---5--4--4---4--2--2---2--0--0-0--0-5-0----|

Outro                                             Repeat x4
G|---------------------------------------------------------|--------|
D|o-------------------------------------------------------o|--------|
A|o-------------------------------------------------------o|--------|
E|---0--0-0--0-0--5--5-5--5-4--2--2-2--2-2--2--2-2--2-2----|---0----|



| /  slide up
| \  slide down
| h  hammer-on
| p  pull-off
| ~  vibrato
| +  harmonic
| x  Mute note
===============================================================================

Please rate or comment........
Добавлено: 16.12.2013
Другие материалы по этой песне:
  • Аккорды и текст

Страница создана 16.12.2013
http://primanota.ru/michael-monroe/do-anything-you-wanna-do-chords.htm
Привет, Гость.
Предлагаем пройти революционный курс по гитаре.
Подарок от PrimaNota.Ru, забирай!