PrimaNota.ru - самый крупный в мире бесплатный архив песенных текстов, аккордов, табулатур и нот


Michael Marc - The Sun Always Rises - таба, видео

Регистрация Запомнить меня
Войти через:  Facebook Google Twitter Vk Yandex Mail.ru

Michael Marc - The Sun Always Rises - таба, видео

Печатать
Просмотров: 129
---------------------------------------------------------------------------------------------------------------
                                          Artist - Michael Marc
                                         ***********************
                                       Song - The Sun Always Rises
                                      *****************************
                                          Tabbed By - Ayreon77
                                         **********************
---------------------------------------------------------------------------------------------------------------
Tuning = Standard


CLASSICAL GUITARS
******************


----------------
PICKING PATTERN
****************
  D           A           Bm          F#m         G           F#m         Em          A           
e|-------2---|-------0---|---------2-|-----------|---------3-|-----------|-----------|-------0---|
B|-----3---3-|-----2---2-|-------3---|---------2-|-------3---|---------2-|---------0-|-----2---2-|
G|---2-------|---2-------|-----4-----|-------2---|-----0-----|-------2---|-------0---|---2-------|
D|-0---------|-----------|---4-------|-4---4-----|---0-------|-----4-----|-----2-----|-----------|
A|-----------|-0---------|-2---------|---4-------|-----------|---4-------|---2-------|-0---------|
E|-----------|-----------|-----------|-2---------|-3---------|-2---------|-0---------|-----------|


----------------
SOLO
*****
00:23                                 h  p
e|--s----|--s----|-5-5-5--5-7-|-7-10-9-10-9-|-----s--7-----|
B|-3\5-3-|-3\5-5-|------------|-------------|-7--5\7---7-5-|
G|-------|-------|------------|-------------|--------------|
D|-------|-------|------------|-------------|--------------|
A|-------|-------|------------|-------------|--------------|
E|-------|-------|------------|-------------|--------------|
            
00:37                                   h  p                                           
e|--s----|--s----|---5-5-5--5-7-|-7-10-9-10-9-|----s--7-|-9-10-10-9-------|
B|-3\5-3-|-3\5-5-|-7------------|-------------|-7-5\7---|-----------10-10-|
G|-------|-------|--------------|-------------|---------|-----------------|
D|-------|-------|--------------|-------------|---------|-----------------|
A|-------|-------|--------------|-------------|---------|-----------------|
E|-------|-------|--------------|-------------|---------|-----------------|

00:50         s                 s                   h  p       h
e|----9-10-12-\14-14-12-10-|-10-\12-12-10-9-|-9-10-9-10-9-7-5-5-7---|------------7---|--h-p-------|
B|-12----------------------|----------------|---------------------7-|-7-8-7--7-7---7-|-5-7-5----7-|
G|-------------------------|----------------|-----------------------|----------------|--------7---|
D|-------------------------|----------------|-----------------------|----------------|------------|
A|-------------------------|----------------|-----------------------|----------------|------------|
E|-------------------------|----------------|-----------------------|----------------|------------|

                         s                      s                   s        h  p             h 
e|--------7-9-10-12-|-12-\14--14-14-12-10|-10-\12--12-12-10-9-|-9-\10--10-9-10-9-7-9-5-|-5-5-7---5-5-----7-----|
B|-7-8-10-----------|--------------------|--------------------|------------------------|-------7-----7-5---7-5-|
G|------------------|--------------------|--------------------|------------------------|-----------------------|
D|------------------|--------------------|--------------------|------------------------|-----------------------|
A|------------------|--------------------|--------------------|------------------------|-----------------------|
E|------------------|--------------------|--------------------|------------------------|-----------------------|

01:20                                   h  p            s   s
e|--s----|--s----|---5-5-5--5-7-|-7-10-9-10-9-|-5-5-5-5-\7-7\5-----|
B|-3\5-3-|-3\5-5-|-7------------|-------------|-----------------5--|
G|-------|-------|--------------|-------------|--------------------|
D|-------|-------|--------------|-------------|--------------------|
A|-------|-------|--------------|-------------|--------------------|
E|-------|-------|--------------|-------------|--------------------|

01:34                                   h  p
e|--s----|--s----|---5-5-5--5-7-|-7-10-9-10-9-|-5-----s--7------|
B|-3\5-3-|-3\5-5-|-7------------|-------------|---7--5\7----7-5-|
G|-------|-------|--------------|-------------|-----------------|
D|-------|-------|--------------|-------------|-----------------|
A|-------|-------|--------------|-------------|-----------------|
E|-------|-------|--------------|-------------|-----------------|

01:46                    s                          h  p         h        h  p              h
e|--------7-9-10-12-|-12-\14--14-14-12-10-|-10-12-10-12-10-|-9-9--10-10--9-10-9--7-9-5-|-5-5-7-7-5-----|-7-----|
B|-7-8-10-----------|---------------------|----------------|---------------------------|-----------7-7-|---7-5-|
G|------------------|---------------------|----------------|---------------------------|---------------|-------|
D|------------------|---------------------|----------------|---------------------------|---------------|-------|
A|------------------|---------------------|----------------|---------------------------|---------------|-------|
E|------------------|---------------------|----------------|---------------------------|---------------|-------|

02:00                                                          p                           
e|------------7-9-10-12-|-(12)-14-14-14--14-14-|-12-12-10-12-12-10-|
B|-----7-8-10-----------|----------------------|-------------------|
G|-7-9------------------|----------------------|-------------------|
D|----------------------|----------------------|-------------------|
A|----------------------|----------------------|-------------------|
E|----------------------|----------------------|-------------------|

                h  p  s 
e|-10-9-10-12-10-12-10\9--9---------h---9--------|-7-----|
B|--------------------------10-10-10-12---10-7-7-|---7-5-|
G|-----------------------------------------------|-------|
D|-----------------------------------------------|-------|
A|-----------------------------------------------|-------|
E|-----------------------------------------------|-------|

02:17                                      p
e|--s----|--s----|---5-5-5--5-7-|-7-10-9--7-5----s--|-7-----|
B|-3\5-3-|-3\5-5-|-7------------|-------------7-5\7-|---7-5-|
G|-------|-------|--------------|-------------------|-------|
D|-------|-------|--------------|-------------------|-------|
A|-------|-------|--------------|-------------------|-------|
E|-------|-------|--------------|-------------------|-------|

02:31                                   h  p              s
e|--s----|--s----|---5-5-5--5-7-|-7-10-9-10-9--9-10-12-12-\14--14-12-10-12-|
B|-3\5-3-|-3\5-5-|-7------------|------------------------------------------|
G|-------|-------|--------------|------------------------------------------|
D|-------|-------|--------------|------------------------------------------|
A|-------|-------|--------------|------------------------------------------|
E|-------|-------|--------------|------------------------------------------|

02:46
     s          s           s                            h                    D
e|-10\12-10-|-10\12-12-|-12-\14-14-12-10-|-7-7-10-7-5-|-5-7-5---|-7---------|-2-|
B|----------|----------|-----------------|------------|-------7-|---7-5---7-|-3-|
G|----------|----------|-----------------|------------|---------|-----------|-2-|
D|----------|----------|-----------------|------------|---------|-----------|-0-|
A|----------|----------|-----------------|------------|---------|-----------|---|
E|----------|----------|-----------------|------------|---------|-----------|---|



ENJOY..............
Добавлено: 11.10.2015
Другие материалы по этой песне:
  • Аккорды и текст

Страница создана 11.10.2015
http://primanota.ru/michael-marc/sun-always-rises-chords.htm
Привет, Гость.
Предлагаем пройти революционный курс по гитаре.
Подарок от PrimaNota.Ru, забирай!