PrimaNota.ru - самый крупный в мире бесплатный архив песенных текстов, аккордов, табулатур и нот


Michael Malarkey - Enzos Lullaby - таба, видео

Регистрация Запомнить меня
Войти через:  Facebook Google Twitter Vk Yandex Mail.ru

Michael Malarkey - Enzos Lullaby - таба, видео

Печатать
Просмотров: 263
Уроки эстрадного вокала в Санкт-Петербурге
-------------------------------------------------------------------------------
                             Enzo's Lullaby - Michael Malarkey
-------------------------------------------------------------------------------
Tabbed by: LillaMartin
E-mail: RasmusSture@hotmail.se

If you wanna hear how this sound you can see a video of me playing this here:
https://www.youtube.com/watch?v=KnjuSWNWsHU

Tuning: standard capo 3rd fret. 

So in Vampire Diaries season 7 episode 2 Michael Malarkey finally gets to show
us he's actually a musician on the side of the job as an actor. 
I thaught it was kind of an cozy tune and decided to tab it out. 

His pretty much plucking the chord Dm, Am, C. 

e|------1--1-1-1-1p0------------------0--------------------------------------|
B|-----3--------------3p1------------1--------------1----------0h1h3-1-0-----|
G|----2-----------------------2-----2-------------0---0----------------------|
D|---0----------------------2------2------------2-------2--------------------|
A|--0---------------------0-------0------0h2-3--------------2----------------|
E|-0-------------------------------------------------------------------------|

Then back to Dm. 


e|-------1--1-1-1-1p0--------------------------------------------------------|
B|------3-------------3p1------------1--------------1---------1--------------|
G|-----2-----------------------2----2-------------0---0----------------------|
D|----0----------------------2-----2------------2-------2--------------------|
A|---0---------------------0------0------0h2-3-------------2-----------------|
E|--0------------------------------------------------------------------------|

The only thing he changes is the C where he only plucks it on 1 and doesnt do
any hammer-on. He repeat whole sequens twice. 



************************************

| /   slide up
| \   slide down
| h   hammer-on
| p   pull-off
| ~   vibrato
| +   harmonic
| x   Mute note
| b   Bend
| pb  Pre-bend
| br  Bend release
| pbr Pre-bend release
| brb Bend release bend

************************************
Добавлено: 17.05.2016
Другие материалы по этой песне:
  • Аккорды и текст

Страница создана 17.05.2016
http://primanota.ru/michael-malarkey/enzos-lullaby-chords.htm
Привет, Гость.
Предлагаем пройти революционный курс по гитаре.
Подарок от PrimaNota.Ru, забирай!