PrimaNota.ru - самый крупный в мире бесплатный архив песенных текстов, аккордов, табулатур и нот


Michael Knott - Deaf And Dumb - таба, видео

Регистрация Запомнить меня
Войти через:  Facebook Google Twitter Vk Yandex Mail.ru

Michael Knott - Deaf And Dumb - таба, видео

Печатать
Просмотров: 79
		   Artist: Michael Knott
Song: 'Deaf and Dumb'
Album: Brow Beat
Copyright: Alarma 1993
tabbed by: Wes Marlan (lookymike@aol.com)

Intro:
e-----------------------------------------------------0----
B---1-------1-----3-------3-----1-------1-----3---------3--
G-----0---0-----0---0---0---0-----0---0-----0---0---0------
D----------------------------------------------------------
A-0-----2-----3---------------0-----2-----3----------------
E---------------------3---------------------------3--------

e----------------------------------------------------------------------
B---1-------1-----3-------3-----1-------1-----3-----3-----3-----0-0h1--
G-----0---0-----0---0---0---0-----0---0-----0---0-----0-----0---0-0h2--
D----------------------------------------------------------------------
A-0-----2-----3---------------0-----2-----3-------3-----3-----3-0-0----
E---------------------3------------------------------------------------

Verse: (same as first quarter of intro over and over)

Chorus:
e-----------2------------------------------------------------------
B-----3-----------3-----3-----3-------3-----3---------3-----3------
G---2-----2-----2-----2-----2---2---0---0-----0-----0---0-----0----
D-0-----0-----0-----0-----0----------------------------------------
A---------------------------------3-------3-----3------------------
E-------------------------------------------------3-------3-----3--

..The rest of the song is pretty much the same with a couple of slight
..variations, but you get the idea.  I know that it isn't *exactly*
..right but who can truly play Mike Knott except for Mike himself? ;)
..This song is a good one to sing along with so here are the words:

Hey mister decision
Make up my mind for me
You're like a religion
I could be caged or free
I might be lost at sea

Hey mister judgemental
Show me the way to be
Show me the way to go
You're high on a pedestal
You know what I should know

And I wish I could become
Deaf and dumb

Hey mister perfect choice
Point me the way to look
Sing in your flawless voice
Where's the road I should have took
What page is best in this book

Hey mister heaven bound
Help me to find the way
Get me up off this ground
What more than Christ can be found

And I wish I could become
Deaf and dumb

Hey mister get it right
You saw me fall tonight
Tell the world of my own flight
I'll tell you to take a bite

And I wish I could become
Deaf and dumb

(Michael Knott--Copyright 1993 Ttonk Publishing)

     
Добавлено: 09.11.2013
Вам также может быть интересно:
Другие материалы по этой песне:
  • Аккорды и текст

Страница создана 09.11.2013
http://primanota.ru/michael-knott/deaf-and-dumb-chords.htm
Привет, Гость.
Предлагаем пройти революционный курс по гитаре.
Подарок от PrimaNota.Ru, забирай!