PrimaNota.ru - самый крупный в мире бесплатный архив песенных текстов, аккордов, табулатур и нот


Michael Kamen - Band Of Brothers Theme - таба, видео

Регистрация Запомнить меня
Войти через:  Facebook Google Twitter Vk Yandex Mail.ru

Michael Kamen - Band Of Brothers Theme - таба, видео

Печатать
Просмотров: 111
----------------------------------------------------------------------------------------------------
                                                      Band of Brothers Theme
----------------------------------------------------------------------------------------------------
Tabbed by: FaithlesSMuSE
Email: humanelement123@yahoo.com

Interpretation from orchestral version, covers all of the important voices. Enjoy.

Tuning: standard capo 8th

3/4 +   .   .   +   .   .   +   .   .   +   .   .   +   .   .   +   .   .   +   .   .   +   .   .    

Part I
E|------------------------------------------------------0------------------------------------------|
B|--------------0-------2---2-----------------------------------0-------2---2----------------------|
G|----------2---------------------------2-------------------2---------------------------2----------|
D|------2-------2-----------2-------2-------2-------------------2-----------2-------2-------2------|
A|--4---------------------------4---------------4-------------------------------4---------------4--|
E|--5-----------------------5-----------------------5-----------------------5----------------------|

E|------------------------------------------------------2---0--------------------------------------|
B|------------0-0-------2---3-----------2-----------------------0-------2---2---------------2---3--|
G|--------2-2-------------------2-------2-----------------------1-----------2-----------2----------|
D|----2-2-------2-----------4-------6-------2-------------------2-----------2-------2-------2---0--|
A|--4-----------------------0-----------0-------4-------------------------------4-----------0---2--|
E|--5-----------------------------------------------0-----------0-----------5----------------------|

E|--0-----------0-------0---0-----------------------------------------------|
B|----------------------------------------------------------2---0---2---3---|
G|------4---2---2-------0---0---7---6---6---4---2-------2-------1-----------|
D|--2---------------2-------0-----------0-----------2---------------2---0---|
A|--4-----------4---------------9---7---7---5-------------------------------|
E|--------------------------------------------------0-----------0-----------|

E|--0-----------2-----------4-----------5~~~-------------------------------------------------------|
B|----------------------------------------------------------2---0----------------------------------|
G|------4---2-------4---2-------4---2-------------------2-------1-------2---2-----------2----------|
D|--------------0-----------2-----------4~~~--------2-------------------------------2-------2------|
A|--4---------------------------------------------------------------------------4---------------4--|
E|--------------------------------------------------0-----------------------5----------------------|

Part II (variation, only 1st and last bars are different)
E|------------------------------------------------------0------------------------------------------|
B|--------------0---------2-2---------------------------2-------0---------2-2----------------------|
G|--------2-2---------------------------2-------------------2---1-----------------------2----------|
D|----2-2-------2-----------2-------2-------2---------------2---2-----------2-------2-------2------|
A|--4---------------------------4---------------4---0---------------------------4---------------4--|
E|--5-----------------------5-----------------------------------------------5----------------------|

E|------------------------------------------------------2---0--------------------------------------|
B|------------0-0-------2---3-----------2-----------------------0-------2---2---------------2---3--|
G|--------2-2-------------------2-------2-----------------------1-----------2-----------2----------|
D|----2-2-------2-----------4-------6-------2-------------------2-----------2-------2-------2---0--|
A|--4-----------------------0-----------0-------4-------------------------------4-----------0---2--|
E|--5-----------------------------------------------0-----------0-----------5----------------------|

E|--0-----------0-------0---0-----------------------------------------------|
B|----------------------------------------------------------2---0---2---3---|
G|------4---2---2-------0---0---7---6---6---4---2-------2-------1-----------|
D|--2---------------2-------0-----------0-----------2---------------2---0---|
A|--4-----------4---------------9---7---7---5-------------------------------|
E|--------------------------------------------------0-----------0-----------|

E|--0-----------2-----------4-----------5~~~--------------------------------|
B|----------------------------------------------------------2---0-----------|
G|------4---2-------4---2-------4---2-------------------2-------1-------2---|
D|--------------0-----------2-----------4~~~--------2-----------------------|
A|--4-----------------------------------------------------------------------|
E|--------------------------------------------------0-----------------------|

Ending
E|--5-----------7-----------5-----------7----------------------------------------|
B|------5---5-------5---5-------5---5-------5---5-----------2--------------------|
G|--2-----------4-----------6-----------4-----------2-----------2-----------2~---|
D|------------------------------------------------------2-----------2-------2~---|
A|--0-----------------------0-----------------------0-------------------4---4~---|
E|--------------------------------------------------------------------------5~---|
Добавлено: 08.07.2012
Другие материалы по этой песне:

Страница создана 02.04.2012
http://primanota.ru/michael-kamen/band-of-brothers-theme-chords.htm
Привет, Гость.
Предлагаем пройти революционный курс по гитаре.
Подарок от PrimaNota.Ru, забирай!