PrimaNota.ru - самый крупный в мире бесплатный архив песенных текстов, аккордов, табулатур и нот


Michael Kamen - Band Of Brothers - таба, видео

Регистрация Запомнить меня
Войти через:  Facebook Google Twitter Vk Yandex Mail.ru

Michael Kamen - Band Of Brothers - таба, видео

Печатать
Просмотров: 175
[------------------------------------------------------------]
[------------------------------------------------------------]
[------0---2~--—4~~-7~-0--2---—4~~-----0--2~--4--5-5--4--0---]
[----0-------------------------------0-----------------------]
[------------------------------------------------------------]
[--3-------------------------------3-------------------------]

[----------------------------------------------------------------------------------|
[----------------------------------------------------------------------------------|
[--9~-7--2~--—4~~--4--5—7~~--7--7~-5--4~-2~-----0--4--2--4--5--7--------9----------|
[---------------------------------------------0------------------------------------|
[----------------------------------------------------------------------------------|
[----------------------------------------------------------------------------------|

5--3----5--3---5--3----|]
-----------------------|
11---------------------|
-----------------------|
-----------------------|
-----------------------|

[-------------------------------------------------------------------------]
[-------------------------------------------------------------------------]
[-----0--4--2--0--0~------0--2--4—4~~---7~-0—2~-4--4~~-----0-2-4--5-5-4-0-]
[---0--------------------0--------------------------------0---------------]
[-------------------------------------------------------------------------]
[-3--------------------3--------------------------------3-----------------]

[----------------------------------------------------------------------------------|
[----------------------------------------------------------------------------------|
[--9~-7--2~--4—4~~--4--5—7~~--7--7--5--4--2--0---0--4--2--4--5--7--------9---------|
[-----------------------------------------------------------0----------------------|
[----------------------------------------------------------------------------------|
[----------------------------------------------------------------------------------|

5--3----5--3---5--3----|]
-----------------------|
11---------------------|
-----------------------|
-----------------------|
-----------------------|

[--------------------------------------------------------------]
[----------------------------------------------------0---------]
[---0-4-2-0--0------2-----0------2-------------0---0-----------]
[-0--------------0-0---0-0---0-0---0-0------0--------0---------]
[--------------------------------------------------------------]
[---------------------------------------------3-------------3--]


DO NOT TAKE CREDIT OF MY TABS.

Email me if I made any mistakes.
Copy and paste this into Microsoft word, and make the font size smaller if this comes out weird.

Email FAIVIOUS@live.ca for any questions.
Добавлено: 25.04.2012
Вам также может быть интересно:
Другие материалы по этой песне:
  • Аккорды и текст

Страница создана 25.04.2012
http://primanota.ru/michael-kamen/band-of-brothers-chords.htm
Привет, Гость.
Предлагаем пройти революционный курс по гитаре.
Подарок от PrimaNota.Ru, забирай!