PrimaNota.ru - самый крупный в мире бесплатный архив песенных текстов, аккордов, табулатур и нот


Michael Gungor - Say So - таба, бас-таба, видео

Регистрация Запомнить меня
Войти через:  Facebook Google Twitter Vk Yandex Mail.ru

Michael Gungor - Say So - таба, бас-таба, видео

Печатать
Просмотров: 151
Уроки эстрадного вокала в Санкт-Петербурге
------------------------------------------------------------------------------------------
                             SAY SO - MICHAEL GUNGOR
------------------------------------------------------------------------------------------
Tabbed by: Jason Rohman
E-mail: JARohman@gmail.com      
Tuning: Drop D

e|--------------------------------------------------------------|
B|--------------------------------------------------------------|
G|------5h7--------------------5h7------------------------------|
D|-----------------------------------------------3~-------------|
A|-------------3h5---------------------3h5----------------------|
D|-3br----------------3br--3br----------------------------------|

e|--------------------------------------------------------------|
B|--------------------------------------------------------------|
G|------5h7---------------------5h7-----------------------------|
D|-----------------------------------------------3h5p3h5-3h5p3--|
A|------------3h5----------------------3h5----------------------|
D|-3br---------------3br--3br-----------------------------------|

Play 4X

************************************

| /   slide up
| \   slide down
| h   hammer-on
| p   pull-off
| ~   vibrato
| +   harmonic
| x   Mute note
| b   Bend
| pb  Pre-bend
| br  Bend release
| pbr Pre-bend release
| brb Bend release bend

************************************
Добавлено: 01.12.2015
Другие материалы по этой песне:
  • Аккорды и текст

Страница создана 08.07.2014
http://primanota.ru/michael-gungor/say-so-chords.htm
Привет, Гость.
Предлагаем пройти революционный курс по гитаре.
Подарок от PrimaNota.Ru, забирай!