PrimaNota.ru - самый крупный в мире бесплатный архив песенных текстов, аккордов, табулатур и нот


Michael Franti And Spearhead - Nobody Right Nobody Wrong - аккорды и текст, видео

Регистрация Запомнить меня
Войти через:  Facebook Google Twitter Vk Yandex Mail.ru

Michael Franti And Spearhead - Nobody Right Nobody Wrong - аккорды и текст, видео

Печатать
Просмотров: 78
Nobody Right Nobody Wrong
Michael Franti And Spearhead
check out the artist @ www.myspace.com/spearheadvibrations
MY rendition of Michael frantic & spearhead's
Nobody right, nobody wrong
Comments & stuffs to
sanviduca@yahoo.com or sanviduca@gmail.com

chords used (A,  B,   C,  Dm,  D,  
 Em,  Gm,  A5,   D5,   C5)

INTRO
E-----------0-------------0--------2---------------0------------0------2--3-----2------|
B--------2-------------0---------3--3----------2-------------0------3---------3--------|
G-----2-------------1----------2------------2-------------1-------2---------2----------|
D---2-------------2----------0------------2-------------2-------0----------------------|
A-0-------------2-----------------------0-------------2--------------------------------|
E--------------0-------------------------------------0---------------------------------|
They say you got to chose your side and, when its done.
Nobody right, nobody wrong.
It ended in a great big fight and, when its done.
Nobody right, nobody wrong

VERSE 1
 A                          E                         D
Conflict each and every day, at home and in the streets,.
and in my soul every way
Its hard to keep the faith, when I feels so far away.
Times i feel connected, times I'm runnin' away.
But Whoa Whoa, Cant you see, all the sickness, hunger, and poverty.
War on the land and war on the seas.
Gm     Gm          C               A
Whoa, War is a painful thing.
A                   E                   D
One argument that none of us can hide,.
is the one thats ragin down deep inside
Tryin' to make a point, or have the last word.
But most the time people just tryin to be heard.
CHORUS
A5             Em               D5                 C5
They say you got to chose your side and, when its done.
Nobody right, nobody wrong.
It ended in a great big fight and, when its done.
Nobody right, nobody wrong.
BRIGDE
Dm              Am              C               A
But how many people never eva broke a rule.
And how many people tryin to get their kids to school
And how many people prayin they only find a job.
And how many poeple are afraid of gettin robbed.
Gm     Gm          C               A
Whoa Whoa, nobody knows.
         Gm     Gm          C               A
And whoa whoa, only god knows.
A                   E                    D
Numbers escalate, wall street, crime rate.
From the Bahgdad streets, to my city by the bay.
CHORUS
A5                 Em                D5                C5
Hey they say you got to chose your side and, when its done.
Nobody right, nobody wrong.
It ended in a great big fight and, when its done.
Nobody right, nobody wrong.
             A               B                 C
And I say, can you say what you mean?
And can you mean what you mean what you say?
And can you say what you mean?
And can you mean what you mean what you say?
And can you say what you mean?
Every single day? Whoa, whoa, whoa.
A                     E                       D
Reach out a hand to somebody who needs a hand.
And reach out a heart to somebody torn apart.
Its hard, this livin, this life we've been given.
Locked in your soul, or locked up in prison.
Remember you have to reach high to be risen.
The day you let go is the day you are forgiven.
A5                 Em                D5                   C5
So they say you got to chose your side and, when its done.
Nobody right, nobody wrong.
Nobody right now.
Nobody right, nobody wrong.
Nobody right, nobody wrong.
And I say, one man got a jet fighter, and the other got a song.
E-----------0-------------0--------2---------------0------------0------2--3-----2------|
B--------2-------------0---------3--3----------2-------------0------3---------3--------|
G-----2-------------1----------2------------2-------------1-------2---------2----------|
D---2-------------2----------0------------2-------------2-------0----------------------|
A-0-------------2-----------------------0-------------2--------------------------------|
E--------------0-------------------------------------0---------------------------------|
Nobody right, nobody wrong.

ENJOY!!!!  INCREASE THE PEACE WHAT A GREAT SONG.
Добавлено: 22.03.2012
Другие материалы по этой песне:
  • Аккорды и текст

Страница создана 22.03.2012
http://primanota.ru/michael-franti-and-spearhead/nobody-right-nobody-wrong-chords.htm
Привет, Гость.
Предлагаем пройти революционный курс по гитаре.
Подарок от PrimaNota.Ru, забирай!