PrimaNota.ru - самый крупный в мире бесплатный архив песенных текстов, аккордов, табулатур и нот


Michael Fath - Bouree - таба, видео

Регистрация Запомнить меня
Войти через:  Facebook Google Twitter Vk Yandex Mail.ru

Michael Fath - Bouree - таба, видео

Печатать
Просмотров: 116
Artist: Michael Fath
Album: Boureé & Giuge
Song: Boureé (by Johann Sebastian Bach)

Transcribed By: Mateo Payssé (Uruguay)
Email: mateopaysse@yahoo.com.ar


.  - palm mute           /  - slide up to
\  - slide down to       ~  - vibrato
h  - hammer on           b  - Bend
p  - pull off            Suffixes for bend
t  - tap                 f  - full bend    h - half bend
ph - pinched harmonic    q  - quarter bend t - tap bend
*  - see comment         ^  - Hold bend    r release bend
x  - Stuccatto           ~  - vibrato bend
,  - slight palm mute    () - ghost note, sustained note
"  - tremolo note        <> - Trill
r  - rest

Tuning: e A D G B E  
Tempo: 100 bpm

||--------------------------------|-----------------------------------|
||.-------------4-5-------5---5-4-|--5--------------------------------|
||--4--6----4-6-----r---4---r-----|----r-------4-6---4-r--------------|
||--2--7--7-----------6-----------|------4-6-7-----7------7-6-4-6-----|
||.-------------------------------|--------------------------------7--|
||--------------------------------|-----------------------------------|

|--4---2-----------2-5-4---------2-|--4-7-2-----------2-5-4---------2-|
|----5---4---2-4-5-------5---4-5---|--------4---2-4-5-------5---4-5---|
|----------4---------------4-------|----------4---------------4-------|
|----------------------------------|----------------------------------|
|----------------------------------|----------------------------------|
|----------------------------------|----------------------------------|

|--4-7-----------------------------|----------------------------------|
|------5-4-2-4-5-4-2---------------|--2-4-5-4-2-4-5-4-2---------------|
|--------------------------4-------|--------------------4-3-1---1-3-4-|
|----------------------------------|--------------------------4-------|
|--------------------4-3-1---1-3-4-|----------------------------------|
|----------------------------------|----------------------------------|

|------------------2-------------6-|--7------------------------------||
|--2-5-4-2---2-4-5---------5-4-5---|----2---5-4-2---2-0-------------.||
|----------4---------2-1-4---------|--------------------3-4----------||
|----------------------------------|------1-------4---------4-1-4----||
|----------------------------------|------------------------------2-.||
|----------------------------------|---------------------------------||

||--------------6-7-------7---7-6-|--7-------------------------------|
||.-7--9----7-9---------7---------|----------10-------9-7-7----------|
||--4--9--9---------r-8-----r-----|----r-6-9----6-5-8-------9-8-9-6--|
||--------------------------------|----------------------------------|
||.-------------------------------|----------------------------------|
||--------------------------------|----------------------------------|

|------------------7---------------|-------------------7---------------|
|----------------9-----------------|--10-------------9-----------------|
|--9-6-------6-7-----7-6-------6-9-|-----6-------6-7-----7-6-------6-9-|
|------6-7-9-------------9-7-9-----|-------6-7-9-------------9-7-9-----|
|----------------------------------|-----------------------------------|
|----------------------------------|-----------------------------------|

|-----------------------------------|----------------------------------|
|--10-------------------------------|--------10-9-7---9-7-6-7----------|
|-----6-7-----------4-7-6-----------|----6-4--------6---------6-2-6----|
|---------9-6-4-3-6-------7-4-------|-------------------------------4--|
|-----------------------------7-5-4-|--5-------------------------------|
|-----------------------------------|----------------------------------|

|---------------------------7----------|--7-------------------------------|
|--10-7----7---------7-10-9-----7-9-10-|--------------7-9-10-7------------|
|-------8------6-8-9----------9--------|----7-6-9---6----------9-8-6-8----|
|------------9-------------------------|----------7--------------------9--|
|--------------------------------------|----------------------------------|
|--------------------------------------|----------------------------------|

|------------------------5-------|----------7--5-4---4------------||
|--------------4-5-7-4-7---7-4---|--------5----0---7---5---------.||
|--4--6----4-6-----------------4-|--6--------------------4---4----||
|--2--7--7-----------------------|----7-6------------------6------||
|--------------------------------|-----------------------------7-.||
|--------------------------------|--------------------------------||

END
Добавлено: 06.05.2012
Другие материалы по этой песне:

Страница создана 06.05.2012
http://primanota.ru/michael-fath/bouree-chords.htm
Привет, Гость.
Предлагаем пройти революционный курс по гитаре.
Подарок от PrimaNota.Ru, забирай!