PrimaNota.ru - самый крупный в мире бесплатный архив песенных текстов, аккордов, табулатур и нот


Michael Buble - Holly Jolly Christmas - текст песни, таба, видео

Регистрация Запомнить меня
Войти через:  Facebook Google Twitter Vk Yandex Mail.ru

Michael Buble - Holly Jolly Christmas - текст песни, таба, видео

Печатать
Просмотров: 182
Solo

e|------------------------------------------------------10------------------------|
B|--15b-15-13---13---------------15b-15-13---13------12----12-10----10------------|
G|------------14--14-----------------------14--------------------12----12-10---12-|
D|------------------13-13-13-------------------------------------------------9----|
A|--------------------------------------------------------------------------------|
E|--------------------------------------------------------------------------------|

e|--------------------------------------------------------------------------------|
B|----------------------------------------13-16p13-------------------13-----------|
G|--12p10--12p10--14b15r14p12-14-12--12h14---------14p12-------12-14--------------|
D|-------------------------------------------------------12-14--------------------|
A|--------------------------------------------------------------------------------|
E|--------------------------------------------------------------------------------|

e|----------------------------------------------12------15/-----------------------|
B|--------------------------13-13-13---------13-----------------------------------|
G|--14-12---------------12-------------14-12------------------12121212-12-14b-12--|
D|--------14----------14----------------------------------------------------------|
A|-----------14-15--15------------------------------------------------------------|
E|------------------(rake)--------------------------------------------------------|

e|------------------------------------------------------------|
B|-------------------13-15b15br-15b15br-15p13-----------------|
G|--14b-12---12h14---------------------------14-12------------|
D|--------------------------------------------------15-14-----|
A|--------------------------------------------------------15--|
E|------------------------------------------------------------|



 Outro 

e|--------------12-------------------|
B|--------13-15-------------15----13-|
G|--12-14----------12----------------|
D|--------------------15-14----14----|
A|-----------------------------------|
E|-----------------------------------|

Добавлено: 20.07.2015
Другие материалы по этой песне:
  • Аккорды и текст

Страница создана 16.08.2014
http://primanota.ru/michael-buble/holly-jolly-christmas-chords.htm
Привет, Гость.
Предлагаем пройти революционный курс по гитаре.
Подарок от PrimaNota.Ru, забирай!