- самый крупный в мире бесплатный архив песенных текстов, аккордов, табулатур и нот

Michael Boardman - Taken - таба, видео

Регистрация Запомнить меня
Войти через:  Facebook Google Twitter Vk Yandex

Michael Boardman - Taken - таба, видео

Просмотров: 105
?Taken? By: Michael Boardman
Original Piece
?This song is for anyone who?s ever lost a loved one or anybody close to them?
-Michael Boardman

b: -------3----------3----------3--------|
g: -----3----------2----------3----------|
d: --------------0-----------------------|
a: --------------------------3-----------|
e: 3-------------------------------------|

b: -------3----------3----------3---------3--------3---------3-----------------|
g: -----3----------2----------3---------0--------2---------3-------------------|
d: --------------0------------------------------0------------------------------|
a: --------------------------3---------2------------------3--------------------|
e: 3---------------------------------------------------------------------------|

basically play this all of the way through the song?.you should be able to get how it goes?.email me at 
for a recording of it

Chorus:You were
Taken from me
You were
Taken from your family
You were
Taken from all of those
Who knew you and, who loved you and, who cared about you

You were my best friend and
Will be until my end
You will never ever know just
How I will miss you
I love you
Forever more


Another life taken too soon
Taken from all of us he knew
He will always live on
In our memories and yours
Добавлено: 27.04.2012
Другие материалы по этой песне:
  • Аккорды и текст

Страница создана 27.04.2012
Привет, Гость.
Предлагаем пройти революционный курс по гитаре.
Подарок от PrimaNota.Ru, забирай!