PrimaNota.ru - самый крупный в мире бесплатный архив песенных текстов, аккордов, табулатур и нот


Michael Barkey - Iedereen Heeft Pijn - таба, видео

Регистрация Запомнить меня
Войти через:  Facebook Google Twitter Vk Yandex Mail.ru

Michael Barkey - Iedereen Heeft Pijn - таба, видео

Печатать
Просмотров: 95
-------------------------------------------------------------------------------
                             Iedereen Heeft Pijn - Michael Barkey
-------------------------------------------------------------------------------
Tabbed by: Rowan
E-mail: rowansteeeman@hotmail.nl

Tuning: E A D G B Eb

Iedereen heeft Pijn - Michael Barkey

Eb! -------0---------------0----------------0---------------0-----------|
B   ---------------0---------------0----------------0----------------0--|
G   ---8-------8-------8-------8--------3-------3-------3-------3-------|
D   --------------------------------------------------------------------|
A   --------------------------------------------------------------------|
E   -7---7---7---7---7---7---7---7----2---2---2---2---2---2---2---2-----|


Eb! -------0---------------0----------------0---------------0-----------|
B   ---------------0---------------0----------------0---------------0---|
G   ---4-------4-------1-------1--------4-------4-------1-------1-------|
D   --------------------------------------------------------------------|
A   --------------------------------------------------------------------|
E   -3---3---3---3---0---0---0---0----3---3---3---3---0---0---0---0-----|


tja wat moet ik zeggen, terwijl er 1000 woorden zijn
als m'n avond is verknald en iedereen heeft pijn
ik staar voor me uit, narcistisch als ik ben
gooi mij vol met snoepjes, van de dokter die mij kent

wachtend op wat jij gaat zeggen. en wat er komen gaat
zonet nog opgenomen, nu denk ik aan mijn plaat
een plaat die mij gaat helen, ik kom er echt wel uit
nog even dit mooi liedje, voor ik in de m'n angstige ogen sluit

de dalen worden dieper, de pieken echt te hoog
laat me nou maar even, slik dit dialoog
het lijkt wel of daartussen, verder niets meer is
kan iemand mij misschien zeggen , is er soms iets mis

mijn lont weer aangestoken, was hij weer te kort
is de bron de oorzaak , of wat er aan mij schort
geweld in mijn bovenkamer, alles draait zich om
huilen met de wolven, maar iedereen is stom

interlude

de grappen die zijn dan over, de bus die staat dan klaar
ik zal vrijwillig meegaan, want ik ben een gevaar
voor alles wat er om mij heen hangt, zal het dan rustig zijn
want mijn avond is verknald , maar iedereen heeft pijn


************************************

| /   slide up
| \   slide down
| h   hammer-on
| p   pull-off
| ~   vibrato
| +   harmonic
| x   Mute note
| b   Bend
| pb  Pre-bend
| br  Bend release
| pbr Pre-bend release
| brb Bend release bend

************************************
Добавлено: 01.07.2015
Другие материалы по этой песне:
  • Аккорды и текст

Страница создана 01.07.2015
http://primanota.ru/michael-barkey/iedereen-heeft-pijn-chords.htm
Привет, Гость.
Предлагаем пройти революционный курс по гитаре.
Подарок от PrimaNota.Ru, забирай!