PrimaNota.ru - самый крупный в мире бесплатный архив песенных текстов, аккордов, табулатур и нот


Michael Angelo - Rain Forest - таба, видео

Регистрация Запомнить меня
Войти через:  Facebook Google Twitter Vk Yandex Mail.ru

Michael Angelo - Rain Forest - таба, видео

Печатать
Просмотров: 130
eb|12p8---------8-10p7--------7-8p5-------5-7p4-------4--|
Bb|-----10---10--------9----9-------5---5-------6---6----|
Gb|--------9-------------10-----------5-----------7------|
Db|------------------------------------------------------|
Ab|------------------------------------------------------|
Eb|------------------------------------------------------|

eb|5p2-------2-6p3-------3-9p6-------6-13p10|
Bb|----2---2-------5---5-------8---8--------|
Gb|------2-----------6-----------9----------|
Db|-----------------------------------------|
Ab|-----------------------------------------|
Eb|-----------------------------------------|

eb|13p10----------10-12p9----------9-10p7-------7-9p6-------6|
Bb|------10----10---------10----10--------7---7-------8---8--|
Gb|---------10---------------11-------------7-----------9----|
Db|----------------------------------------------------------|
Ab|----------------------------------------------------------|
Eb|----------------------------------------------------------|

eb|8p5-------5-7p4-------4-10p7--------7-13p10----------10|
Bb|----6---6-------6---6--------9----9---------12----12---|
Gb|------5-----------7------------10--------------13------|
Db|-------------------------------------------------------|
Ab|-------------------------------------------------------|
Eb|-------------------------------------------------------|

eb|12p9----------9-15p12----------12-18p15----------15-21~~~~|
Bb|-----11----11---------14----14----------17----17----------|
Gb|--------12---------------15----------------18-------------|
Db|----------------------------------------------------------|
Ab|----------------------------------------------------------|
Eb|----------------------------------------------------------|

eb|--------------------------------|
Bb|--------------------------------|
Gb|--------------------------------|
Db|-------------5------------------|
Ab|2-----(2)-------7p5--7~~~--x\---|
Eb|0-----(0)/7----------------x\--0|
Добавлено: 20.03.2012
Другие материалы по этой песне:
  • Аккорды и текст

Страница создана 20.03.2012
http://primanota.ru/michael-angelo/rain-forest-chords.htm
Привет, Гость.
Предлагаем пройти революционный курс по гитаре.
Подарок от PrimaNota.Ru, забирай!