PrimaNota.ru - самый крупный в мире бесплатный архив песенных текстов, аккордов, табулатур и нот


Michael Angelo - No Boundaries - таба, видео

Регистрация Запомнить меня
Войти через:  Facebook Google Twitter Vk Yandex Mail.ru

Michael Angelo - No Boundaries - таба, видео

Печатать
Просмотров: 75
As recorded by Michael Angelo



Transcribed by Luke Owens

 Music by Michael Angelo Batio
Arranged by Michael Angelo Batio
 

Gtr I (Eb Ab Db Gb Bb Eb) - 'Michael Angelo'


 Intro
  Q=130
 4/4
  Gtr I
  H.       S  S  T  T  T  T    W
|------------------------15-|-19--------|
|---------------------17----|-----------|
|------------------16-------|-----------|
|---------------17----------|-----------|
|---------14h19-------------|-----------|
|---------------------------|-----------|


   E      +Q     E  E  +E   E  E    T  E..  +E   S  S  H
|-19b20==(19)r--19-17-(17)-20-17-|-17-19---(19)-------------|
|--------------------------------|--------------17-17-17----|
|--------------------------------|--------------------------|
|--------------------------------|--------------------------|
|--------------------------------|--------------------------|
|--------------------------------|--------------------------|


 5/4                          4/4
   Q    E   E  +H      E  E     H.       T  S.  E    +Q    E  E  +Q    E  E
|---------------------------||--------------------|-------------------------|
|-17--(15)-15-(15)----15-12-||-12-------12-15-----|-------15----------15----|
|---------------------------||-----------------14-|-(14)-----12-(12)-----11-|
|---------------------------||--------------------|-------------------------|
|---------------------------||--------------------|-------------------------|
|---------------------------||--------------------|-------------------------|


   +E   S  S  Q.    E  S  S  E
|------------------------------||
|------------------------------||
|-(11)-12-11-------------------||
|------------14----12----------||
|---------------------14-12-10-||
|------------------------------||


 5/4                                      4/4
                                |--3--|
   S     +S   E  +H.       +E   S  S  S     Q   +Q    Q   +E   S  S
|---------------------------------------||--------------------------|
|---------------------------------------||--------------------------|
|---------------------------------------||-12--(12)--11--(11)-11-12-|
|------------------------------11-12-14-||--------------------------|
|-12b14r(12)-12-(12)------(12)----------||--------------------------|
|---------------------------------------||--------------------------|


 3/4               4/4                    2/4
                                 |-3--|     |-3--|  |--3--|  |--3--|  |--3--|
   Q.    E  +Q       H     Q.    S  S S     S S  S  S  S  S  S  S  S  S  S  S
|----------------||-------------------8-||-11p8----------11-14p11----------11-|
|-------12-(12)--||-13----15-------10---||------10----13----------13----13----|
|-14-------------||-------------11------||---------14----------------14-------|
|----------------||---------------------||------------------------------------|
|----------------||---------------------||------------------------------------|
|----------------||---------------------||------------------------------------|


 4/4
   E      +E   +E   +E   +E    S  S  E  E
|-14b15==(14)-(14)-(14)-(14)r-14-12-------|
|-----------------------------------15-15-|
|-----------------------------------------|
|-----------------------------------------|
|-----------------------------------------|
|-----------------------------------------|


   +E   +E   E  E  +Q    E  E    +E   S  S  Q   +E   E  S  S  E
|-----------12----------12----|---------------------------------|
|-(15)-(15)-------------------|---------------------------------|
|--------------14-(14)-----11-|-(11)-12p11----------------------|
|-----------------------------|------------14--(14)-12----------|
|-----------------------------|------------------------14-12-10-|
|-----------------------------|---------------------------------|


   S     +S   S  +S   +Q    +H        E  E  E  E  E  E  E  E
|----------------------------------|----------------12-------|
|----------------------------------|-------------------12-15-|
|----------------------------------|----------12s11----------|
|----------------------------------|-------16----------------|
|-12b14r(12)-12-(12)-(12)--(12)----|----14-------------------|
|----------------------------------|-12----------------------|


   +E   E  E  E  E  E  E      +E
|-----------------------------------|
|-(15)-------15-------15b17==(15)r--|
|------12s11----12-11---------------|
|-----------------------------------|
|-----------------------------------|
|-----------------------------------|


                       Alternate Picking Run
                                                          |--3--|
   H     +E   E  +Q      S      +S   S  S  E  +E   +Q.    S  S  S
|---------------------|-------------------------------------------|
|-15----(15)----------|----------------------------------19-20-22-|
|------------14-(14)--|-14b16==(14)r14-12-------------------------|
|---------------------|-------------------14-(14)-(14)------------|
|---------------------|-------------------------------------------|
|---------------------|-------------------------------------------|


   |--3--|  |--3--|  |--3--|  |--3--|  |--3--|     |--3--|  |--3--|
   S  S  S  S  S  S  S  S  S  S  S  S  S  S  S  E  S  S  S  S  S  S
|-19----------------19----------------19----------22-20-19----------|
|----22-20-19-20-22----22-20-19-20-22----22-19-20----------22-20-19-|
|-------------------------------------------------------------------|
|-------------------------------------------------------------------|
|-------------------------------------------------------------------|
|-------------------------------------------------------------------|


   |--3--|  |--3--|  |--3--|  |--3--|  |--3--|  |--3--|  |--3--|  |--3--|
   S  S  S  S  S  S  S  S  S  S  S  S  S  S  S  S  S  S  S  S  S  S  S  S
|-24-22-20----------22-20-19----------20-19-17----------22-20-19----------|
|----------24-22-20----------22-20-19----------20-19-17----------22-20-19-|
|-------------------------------------------------------------------------|
|-------------------------------------------------------------------------|
|-------------------------------------------------------------------------|
|-------------------------------------------------------------------------|


   |--3--|  |--3--|  |--3--|  |--3--|  |--3--|  |--3--|  |--3--|  |--3--|
   S  S  S  S  S  S  S  S  S  S  S  S  S  S  S  S  S  S  S  S  S  S  S  S
|-22-20-19----------------------------------------------------------------|
|----------22-20-19-------------------------------------------------------|
|-------------------19-17-16----------17-16-14----------------------------|
|----------------------------19-17-16----------17-16-14-------------------|
|-------------------------------------------------------17-15-14----------|
|----------------------------------------------------------------17-15-14-|


   |--3--|  |--3--|  |--3--|  |--3--|  |--3--|  |--3--|  |--3--|  |--3--|
   S  S  S  S  S  S  S  S  S  S  S  S  S  S  S  S  S  S  S  S  S  S  S  S
|-------------------------------------------------------------------------|
|----------------------------------------------------------------20-19-17-|
|-------------------17-16-14----------19-17-16----------19-17-16----------|
|----------17-16-14----------17-16-14----------19-17-16-------------------|
|-17-15-14----------------------------------------------------------------|
|-------------------------------------------------------------------------|


              |--3--|
   H     +E   S  S  S  E  E
|-19----(19)-17h19p17-15-17-|
|---------------------------|
|---------------------------|
|---------------------------|
|---------------------------|
|---------------------------|


        |--3--|        |--3--|
   +E   S  S  S  E  E  S  S  S  E  E  E
|-(17)-15h17p15-14-15-14h15p14----------|
|------------------------------17-15----|
|------------------------------------16-|
|---------------------------------------|
|---------------------------------------|
|---------------------------------------|


                                                                        |--3--|
   S      +S   +E   +Q    +Q     S   S  E    S     +S   E  +Q    +Q.    S  S  S
|-----------------------------------------|-------------------------------------|
|-17b19==(17)-(17)-(17)--(17)--(19)r17-15-|-17b19-(17)-17-(17)--(17)---------15-|
|-----------------------------------------|-------------------------------16----|
|-----------------------------------------|----------------------------17-------|
|-----------------------------------------|-------------------------------------|
|-----------------------------------------|-------------------------------------|


                                                    |--3--|
   Q.    E  +Q    E  E    +Q.    S  S  +E   E  +E   S  S  S
|-14-------------------|------------------------------------|
|-------17-(17)--15-15-|-(15)----------------------------15-|
|----------------------|--------16s14-(14)-12-(12)----16----|
|----------------------|---------------------------17-------|
|----------------------|------------------------------------|
|----------------------|------------------------------------|


   Q.    E  +Q    E  S  S
|-14----------------------|
|-------17-(17)--15-------|
|-------------------16s14-|
|-------------------------|
|-------------------------|
|-------------------------|


                                      |--3--|
   +E   E  E  S  S  S  S  S  S  S  S  S  S  S
|---------------------------------------------|
|------------------------------------------15-|
|-(14)-12-11-12p11----------------------16----|
|------------------14-12-------------17-------|
|------------------------14-13-12-10----------|
|---------------------------------------------|


   Q.    E  +Q    E  E    +Q.    S  S  +E   E  S      +S   +S   S
|-14-------------------|------------------------------------------|
|-------17-(17)--15-15-|-(15)-------------------------------------|
|----------------------|--------16s14-(14)-12-14b16==(14)r(14)p12-|
|----------------------|------------------------------------------|
|----------------------|------------------------------------------|
|----------------------|------------------------------------------|


 Alternate Picking Run 2
              |--3--|  |--3--|  |--3--|
   H     +E   S  S  S  S  S  S  S  S  S
|---------------------------------------|
|---------------------------------------|
|-14----(14)----------------------------|
|------------------------------16-17-19-|
|---------------------16-17-19----------|
|------------15-17-19-------------------|


   |--3--|  |--3--|  |--3--|  |--3--|  |--3--|  |--3--|  |--3--|  |--3--|
   S  S  S  S  S  S  S  S  S  S  S  S  S  S  S  S  S  S  S  S  S  S  S  S
|-------------------------------------------------------------------------|
|----------------------------------------------------------------17-20-19-|
|----------------------------16-19-18-16----------------16-18-19----------|
|-17-16-------------16-17-19-------------19-17-16-17-19-------------------|
|-------19-16-17-19-------------------------------------------------------|
|-------------------------------------------------------------------------|


   |--3--|  |--3--|  |--3--|  |--3--|  |--3--|  |--3--|  |--3--|  |--3--|
   S  S  S  S  S  S  S  S  S  S  S  S  S  S  S  S  S  S  S  S  S  S  S  S
|----------------------------17-21-19-17----------------17-19-21----------|
|-17----------------17-19-20-------------20-19-17-19-20----------19-20-22-|
|----19-18-16-18-19-------------------------------------------------------|
|-------------------------------------------------------------------------|
|-------------------------------------------------------------------------|
|-------------------------------------------------------------------------|


   |--3--|                                           |--3--|
   S  S  S  T.  T.  T.  T.  T.  T.  T.  T.  E  +Q    S  S  S
|-19-21-22-24--24--24--24--24--24--24--24--24-(24)--------15---|
|------------------------------------------------------17------|
|---------------------------------------------------16---------|
|--------------------------------------------------------------|
|--------------------------------------------------------------|
|--------------------------------------------------------------|


 Sweeped Arpeggios
   |--3--|  |--3--|  |--3--|  |--3--|  |--3--|  |--3--|  |--3--|  |--3--|
   S  S  S  S  S  S  S  S  S  S  S  S  S  S  S  S  S  S  S  S  S  S  S  S
|-19p15----------15-19p15----------15-19p15----------15-19p15----------15-|
|-------17----17----------17----17----------17----17----------17----17----|
|----------16----------------16----------------16----------------16-------|
|-------------------------------------------------------------------------|
|-------------------------------------------------------------------------|
|-------------------------------------------------------------------------|


   |--3--|  |--3--|  |--3--|  |--3--|  |--3--|  |--3--|  |--3--|  |--3--|
   S  S  S  S  S  S  S  S  S  S  S  S  S  S  S  S  S  S  S  S  S  S  S  S
|-20p15----------15-20p15----------12-17p12----------12-17p12----------15-|
|-------17----17----------17----13----------13----13----------13----17----|
|----------16----------------14----------------14----------------16-------|
|-------------------------------------------------------------------------|
|-------------------------------------------------------------------------|
|-------------------------------------------------------------------------|


   |--3--|  |--3--|  |--3--|  |--3--|  |--3--|  |--3--|  |--3--|  |--3--|
   S  S  S  S  S  S  S  S  S  S  S  S  S  S  S  S  S  S  S  S  S  S  S  S
|-19p15----------15-19p15----------19-24p19----------15-19p15----------15-|
|-------17----17----------17----20----------20----17----------17----17----|
|----------16----------------21----------------16----------------16-------|
|-------------------------------------------------------------------------|
|-------------------------------------------------------------------------|
|-------------------------------------------------------------------------|


   |--3--|  |--3--|  |--3--|  |--3--|     |--3--|     |--3--|
   S  S  S  S  S  S  S  S  S  S  S  S  E  S  S  S  E  S  S  S
|-20p15----------15-20p15----------12-17-------17-20-------15-|
|-------17----17----------17----13----------17----------17----|
|----------16----------------14----------17----------16-------|
|-------------------------------------------------------------|
|-------------------------------------------------------------|
|-------------------------------------------------------------|


   |--3--|  |--3--|  |--3--|  |--3--|  |--3--|  |--3--|     |--3--|
   S  S  S  S  S  S  S  S  S  S  S  S  S  S  S  S  S  S  E  S  S  S
|-19p15----------15-19p15----------19-24p19----------------------15--|
|-------17----17----------17----20----------20----------------17-----|
|----------16----------------21----------------21----------16--------|
|-------------------------------------------------21-----------------|
|----------------------------------------------------22-19-----------|
|--------------------------------------------------------------------|


   |--3--|  |--3--|  |--3--|  |--3--|     |--3--|     |--3--|
   S  S  S  S  S  S  S  S  S  S  S  S  E  S  S  S  E  S  S  S
|-20p15----------15-20p15----------12-17-------17-20-------15-|
|-------17----17----------17----13----------17----------17----|
|----------16----------------14----------17----------16-------|
|-------------------------------------------------------------|
|-------------------------------------------------------------|
|-------------------------------------------------------------|


   |--3--|  |--3--|  |--3--|  |--3--|  |--3--|  |--3--|     |--3--|
   S  S  S  S  S  S  S  S  S  S  S  S  S  S  S  S  S  S  E  S  S  S
|-19p15----------15-19p15----------19-24p19----------------------15--|
|-------17----17----------17----20----------20----------------17-----|
|----------16----------------21----------------21----------16--------|
|-------------------------------------------------21-----------------|
|----------------------------------------------------22-19-----------|
|--------------------------------------------------------------------|


 5/4
   |--3--|  |--3--|  |--3--|  |--3--|     |--3--|     |--3--|  |--3--|  |--3--|
   S  S  S  S  S  S  S  S  S  S  S  S  E  S  S  S  E  S  S  S  S  S  S  S  S  S
|-20p15----------15-20p15----------12-17-------17-20-------12-17p12--------------|
|-------17----17----------17----13----------17----------13----------13-----------|
|----------16----------------14----------17----------14----------------14--------|
|-------------------------------------------------------------------------14-----|
|----------------------------------------------------------------------------15--|
|--------------------------------------------------------------------------------|


 4/4
   |--3--|  |--3--|  |--3--|  |--3--|  |--3--|  |--3--|  |--3--|  |--3--|
   S  S  S  S  S  S  S  S  S  S  S  S  S  S  S  S  S  S  S  S  S  S  S  S
|----------------12-17p12----------------------------14-19p14-------------|
|-------------13----------13----------------------15----------15----------|
|----------14----------------14----------------16----------------16-------|
|-------14----------------------14----------16----------------------16----|
|-12h15----------------------------15-14h17----------------------------17-|
|-------------------------------------------------------------------------|


   |---3---|  |--3--|  |--3--|  |--3--|  |--3--|  |--3--|  |--3--|  |--3--|
   S  +S   S  S  S  S  S  S  S  S  S  S  S  S  S  S  S  S  S  S  S  S  S  S
|------------------12-15p12----------11-14p11----------14-17p14----------13-|
|---------------13----------13----13----------13----16----------16----15----|
|------------12----------------14----------------17----------------14-------|
|---------14----------------------------------------------------------------|
|-15-(15)-------------------------------------------------------------------|
|---------------------------------------------------------------------------|


   |--3--|  |--3--|  |--3--|  |--3--|  |--3--|  |--3--|  |--3--|  |--3--|
   S  S  S  S  S  S  S  S  S  S  S  S  S  S  S  S  S  S  S  S  S  S  S  S
|-17p13----------13-17p13----------15-19p15----------15-19p15----------17-|
|-------15----15----------15----17----------17----17----------17----18----|
|----------14----------------16----------------16----------------17-------|
|-------------------------------------------------------------------------|
|-------------------------------------------------------------------------|
|-------------------------------------------------------------------------|


   |--3--|  |--3--|  |--3--|  |--3--|  |--3--|  |--3--|  |--3--|  |--3--|
   S  S  S  S  S  S  S  S  S  S  S  S  S  S  S  S  S  S  S  S  S  S  S  S
|-20p17----------17-20p17----------19-22p19----------19-22p19----------19-||
|-------18----18----------18----20----------20----20----------20----21----||
|----------17----------------19----------------19----------------22-------||
|-------------------------------------------------------------------------||
|-------------------------------------------------------------------------||
|-------------------------------------------------------------------------||


 2/4
   |--3--|  |--3--|  |--3--|  |--3--|
   S  S  S  S  S  S  S  S  S  S  S  S
|-22p19----------16-19p16----------16-|
|-------21----18----------18----18----|
|----------19----------------19-------|
|-------------------------------------|
|-------------------------------------|
|-------------------------------------|


 4/4
   S      +S   +E   +Q.     S   S  E  E
|-19b20==(19)-(19)-(19)---(20)r19-17----|
|------------------------------------21-|
|---------------------------------------|
|---------------------------------------|
|---------------------------------------|
|---------------------------------------|


   E      +E   +H       T  T  T.  T  T  T  T.
|--------------------------------------12h17--|
|-21b22==(21)-(21)r-----------------13--------|
|--------------------------------14-----------|
|----------------------------14---------------|
|----------------------12h15------------------|
|---------------------------------------------|


 6/4
   T                                             T                                         T
   T  T  T.  T  T  T  T.  T  T  T.  T  T  T  T.  T  T  T.  T  T  T  T.  T  T  T.  T  T  T  T.  T
|-20p17p12-------------------------------12h17--20p17p12--------------------------|
|-----------13------------------------13------------------13----------------------|
|--------------14------------------14------------------------14------------------14-|
|-----------------14-----------14-------------------------------14-----------14---|
|--------------------15--12h15-------------------------------------15--12h15------|
|---------------------------------------------------------------------------------|

T  T  T  T  T  T.  Q
-----12h17--20p17p12-------------------|
--13------------------13---------------|
------------------------14------------|
----------------------------14---------|
-------------------------------15--12--|
---------------------------------------|


 Diminished Arpeggios
  Q=200
 4/4
   S  S  S  S  S  S  S  S  S  S  S  S  S  S  S  S
|-16p13----------------13-19p13----------------16-|
|-------15----------15----------15----------18----|
|----------16-13h16----------------16-16h19-------|
|-------------------------------------------------|
|-------------------------------------------------|
|-------------------------------------------------|


   S  S  S  S  S  S  S  S  S  S  S  S  S  S  S  S
|-22p16----------------16-19p16----------------13-|
|-------18----------18----------18----------15----|
|----------19-16h19----------------19-13h16-------|
|-------------------------------------------------|
|-------------------------------------------------|
|-------------------------------------------------|


   S  S  S  S  S  S  S  S  S  S  S  S  S  S  S  S
|-19p13-------------16p13-------------19p13-------|
|-------15----------------15----------------15----|
|----------16-13h16----------16-13h16----------16-|
|-------------------------------------------------|
|-------------------------------------------------|
|-------------------------------------------------|


   S  S  S  S  S  S  S  S  Q   S  S  E
|-------16p13-------------16-----------|
|-------------15-------15-----------14-|
|-13h16----------13h16--------14h16----|
|--------------------------------------|
|--------------------------------------|
|--------------------------------------|


   E      +E   +H       S   S  E    E      +E   +Q.     S  S  S  S  S  S
|--------------------------------|------------------------------14-17-16-|
|-17b19==(17)-(17)----(19)r17-14-|-17b19==(17)-(17)r---14-15-18----------|
|--------------------------------|---------------------------------------|
|--------------------------------|---------------------------------------|
|--------------------------------|---------------------------------------|
|--------------------------------|---------------------------------------|


   S  S  S  S  S  S  S  S  S  S  S  S  S  S  S  S
|-14----------------------------------------------|
|----18-15-14-------------------------------------|
|-------------16-14-13----------------------------|
|----------------------16-15-12-------------------|
|-------------------------------16-14-12----------|
|----------------------------------------16-14-13-|


 Over and Under Section
   E  +E   +H     E E    S S S  S S S  S S  S S S S S S  S S
|---------------------|--------------------------------------|
|---------------------|--------------------------------------|
|-----------------0-0-|-12-0-0-10-0-0-12-0-10-0-0-7-0-0-10-0-|
|---------------------|--------------------------------------|
|---------------------|--------------------------------------|
|-14-(14)-(14)--------|--------------------------------------|


  S S S S S S S S S S S S S S S S   S S S S S S S S S S S S S S S S
|---------------------------------|---------------------------------|
|---------------------------------|---------------------------------|
|-7-0-0-6-0-0-7-0-7-0-0-6-0-0-5-0-|-3-0-0-5-0-0-6-0-7-0-0-6-0-0-5-0-|
|---------------------------------|---------------------------------|
|---------------------------------|---------------------------------|
|---------------------------------|---------------------------------|


                  ~~
  S S S S S S S S Q.   S S   S S S S S S S S S S S S S S S S
|--------------------------|---------------------------------|
|--------------------------|---------------------------------|
|-3-0-0-7-0-0-5-0-3----0-0-|-3-0-0-5-0-0-6-0-7-0-0-6-0-0-5-0-|
|--------------------------|---------------------------------|
|--------------------------|---------------------------------|
|--------------------------|---------------------------------|


  S S S  S S S S S S  S S S S S  S S    S S S S S S  S S S S S S S S S S
|------------------------------------|-----------------------------------|
|------------------------------------|-----------------------------------|
|-3-0-0-12-0-0-3-0-0-12-0-0-3-0-12-0-|-10-0-0-7-0-0-10-0-7-0-0-6-0-0-7-0-|
|------------------------------------|-----------------------------------|
|------------------------------------|-----------------------------------|
|------------------------------------|-----------------------------------|


  S S S S S S S +S  Q  S S E   S     +E   E  S     +E   E  S S S S S S
|----------------------------|-----------------------------------5-7-8-|
|--------------------------5-|-8b10==(8)-10r-8b10==(8)-10r-5-7-8-------|
|-7-0-0-6-0-0-5-(5)-3--5h7---|-----------------------------------------|
|----------------------------|-----------------------------------------|
|----------------------------|-----------------------------------------|
|----------------------------|-----------------------------------------|


  S S S S S S S S  S  S  S  S S  S  S  S
|-5-7-8-8-8-8-7-8-10-10-10-10-8-10-12-12-|
|----------------------------------------|
|----------------------------------------|
|----------------------------------------|
|----------------------------------------|
|----------------------------------------|


   S  S  S  S  S  S  S  S  S  S  S  S  S  S  S  S
|-13-13-13-13-15-15-15-15-17-17-17-17-19-19-19-19-|
|-------------------------------------------------|
|-------------------------------------------------|
|-------------------------------------------------|
|-------------------------------------------------|
|-------------------------------------------------|


   S  S  S  S  S  S  S  S  Q   T  T  T.  T  T  T  T.
|-20-20-20-20-19-19-19-19-17------------------12-17--|
|------------------------------------------13--------|
|---------------------------------------14-----------|
|-----------------------------------14---------------|
|-----------------------------12h15------------------|
|----------------------------------------------------|


   +T   T  T.  T  T  T  T.  Q   T  T  T.  T  T  T  T.  +T   T  T  T.  T  T  T.
|-(17)-17p12-----------------------------------12-17--(17)-17p12---------------|
|-------------13----------------------------13-------------------13------------|
|----------------14----------------------14--------------------------14--------|
|-------------------14---------------14---------------------------------14-----|
|----------------------15--12--12h15---------------------------------------15--|
|------------------------------------------------------------------------------|


   Q   T  T  T.  T  T  T  T.  +T   T  T.  T  T  T  T.  Q
|---------------------12-17--(17)-17p12-------------------|
|------------------13--------------------13---------------|
|---------------14--------------------------14------------|
|-----------14---------------------------------14---------|
|-12--12h15---------------------------------------15--12--|
|---------------------------------------------------------|


   T  T  T.  T  T  T  T.  +T   T  T  T.  T  T  T.  Q   T  T  T.  T  T  T  T.
|-----------------12-17--(17)-17p12-----------------------------------12-17---|
|--------------13-------------------13-----------------------------13---------|
|-----------14--------------------------14----------------------14------------|
|-------14---------------------------------14---------------14----------------|
|-12h15---------------------------------------15--12--12-15-------------------|
|-----------------------------------------------------------------------------|


   T  T  T.  T  T  T  T.  Q   T  T  T.  T  T  T  T.  +T   T  T  T.  T  T  T.
|-17-17p12-----------------------------------12-17--(17)-17p12---------------|
|-----------13----------------------------13-------------------13------------|
|--------------14----------------------14--------------------------14--------|
|-----------------14---------------14---------------------------------14-----|
|--------------------15--12--12h15---------------------------------------15--|
|----------------------------------------------------------------------------|


 Neo Classical Section
   Q   Q   S  S  E  Q
|------------------12--|
|-15--14--14h15-15-----|
|----------------------|
|----------------------|
|----------------------|
|----------------------|


                              Q=180
   S  S  +E   Q   S  S  E  Q     E  E  E  E  E  E  E  E
|-12h13-(13)-12--12h13-13-15--|-------12----13-12-------|
|-----------------------------|----13----13-------15-13-|
|-----------------------------|-14----------------------|
|-----------------------------|-------------------------|
|-----------------------------|-------------------------|
|-----------------------------|-------------------------|


   E  E  E  E  E  E  S  S  S  S
|-------15----12----------------|
|-12-15----15----15-13h15p13p12-|
|-------------------------------|
|-------------------------------|
|-------------------------------|
|-------------------------------|


                     |--3--|
   E  E  E  E  E  E  S  S  S  E    E  E  E  E  E  E  S  S  S  S
|-------------------------------|-------------12----------------|
|----12-13----15-13-12h13p12----|----------12----15-13h15p13p12-|
|-14-------14----------------14-|-13----13----------------------|
|-------------------------------|----14-------------------------|
|-------------------------------|-------------------------------|
|-------------------------------|-------------------------------|


                  |--3--|
   E  E  E  E  E  S  S  S  E  E
|-------12----13-12h13p12--------|
|----13----13-------------15-13--|
|-14-----------------------------|
|--------------------------------|
|--------------------------------|
|--------------------------------|


   E  E  E  E  S  S  S  S  S  S  S  S
|-------15----12----------------------|
|-12-15----15----15-13-12-15-14-13-12-|
|-------------------------------------|
|-------------------------------------|
|-------------------------------------|
|-------------------------------------|


                     |--3--|
   E  E  E  E  E  E  S  S  S  E    S  S  E  +H.
|-------------------------------|------------------|
|----12-13----15-13-12-13-12----|------------------|
|-14-------14----------------14-|-13h14p13-(13)----|
|-------------------------------|------------------|
|-------------------------------|------------------|
|-------------------------------|------------------|


 Excerpt From Paganini's
   S  S  S  S  S  S  S  S  S  S  S  S  S  S  S  S
|-------12----------13-------17-15-13-12----------|
|----13----13----15----15-13-------------15-13-12-|
|-14----------16----------------------------------|
|-------------------------------------------------|
|-------------------------------------------------|
|-------------------------------------------------|


   S  S  S  S  S  S  S  S  S  S  S  S  S  S  S  S
|-------12----------13-------17-15-13-12----------|
|----13----13----15----15-13-------------15-13-12-|
|-14----------16----------------------------------|
|-------------------------------------------------|
|-------------------------------------------------|
|-------------------------------------------------|


   S  S  S  S  S  S  S  S  S  S  S  S  S  S  S  S
|-------12----------13-------17-15-13-12----------|
|----13----13----15----15-13-------------15-13-12-|
|-14----------16----------------------------------|
|-------------------------------------------------|
|-------------------------------------------------|
|-------------------------------------------------|


   S  S  S  S  S  S  S  S  S  S  S  S  Q
|-----------------------------------------|
|-13-12----12----12----12----12----12-----|
|-------14----13--------------------------|
|-------------------15----14--------------|
|-------------------------------15----14--|
|-----------------------------------------|


   S  S  S  S  S  S  S  S  S  S  S  S  S  S  S  S
|-------17----------18-------22-20-18-------------|
|----18----18----20----20-18----------22-20-18-17-|
|-19----------21----------------------------------|
|-------------------------------------------------|
|-------------------------------------------------|
|-------------------------------------------------|


   S  S  S  S  S  S  S  S  S  S  S  S  S  S  S  S
|-------17----------18-------22-20-18--------------|
|----18----18----20----20-18----------22-20-18-17--|
|-19----------21-----------------------------------|
|--------------------------------------------------|
|--------------------------------------------------|
|--------------------------------------------------|


   S  S  S  S  S  S  S  S  S  S  S  S  S  S  S  S
|-------17----------18-------22-20-18-------------|
|----18----18----20----20-18----------22-20-18-17-|
|-19----------21----------------------------------|
|-------------------------------------------------|
|-------------------------------------------------|
|-------------------------------------------------|


   S  S  S  S  S  S  S  S  S  S  S  S  Q
|-----------------------------------------|
|-18-17----17----17----17----17----17-----|
|-------19----18--------------------------|
|-------------------20----19--------------|
|-------------------------------20----19--|
|-----------------------------------------|


   S  S  S  S  S  S  S  S  S  S  S  S  S  S  S  S
|-------17----------18----------17----------15----|
|----18----18----20----20----18----18----17----17-|
|-19----------21----------19----------18----------|
|-------------------------------------------------|
|-------------------------------------------------|
|-------------------------------------------------|


   S  S  S  S  S  S  S  S  S  S  S  S  S  S  S  S
|-------17----------18----------17----------15-----|
|----18----18----20----20----18----18----17----17--|
|-19----------21----------19----------18-----------|
|--------------------------------------------------|
|--------------------------------------------------|
|--------------------------------------------------|


   S  S  S  S  S  S  S  S  S  S  S  S  S  S  S  S
|-------17----------18-------22-20-18-------------|
|----18----18----20----20-18----------22-20-18-17-|
|-19----------21----------------------------------|
|-------------------------------------------------|
|-------------------------------------------------|
|-------------------------------------------------|


   S  S  S  S  S  S  S  S  S  S  S  S  S  S  S  S
|--------------------------------------------------|
|-18-17----17----17----17----17----17--------------|
|-------19----18-----------------------------------|
|-------------------20----19-----------------------|
|-------------------------------20----19-20-19-17--|
|--------------------------------------------------|


   H     +E   S  S  E  E    +Q    +Q.    E  E  E    +Q    +Q.    E  E  S  S
|------------------------|--------------10-------|--------------------------|
|------------------10-13-|-(13)--(13)------13-12-|-(12)--(12)---12-12-12h13-|
|-19----(19)-10h12-------|-----------------------|--------------------------|
|------------------------|-----------------------|--------------------------|
|------------------------|-----------------------|--------------------------|
|------------------------|-----------------------|--------------------------|


   +E   E  +Q.    S  S  E  S      +S
|-------------------------------------|
|-(13)-----------------10-13b15==(13)-|
|------12-(12)---10h12----------------|
|-------------------------------------|
|-------------------------------------|
|-------------------------------------|


   +Q    +Q.    +S   S  E  E    +Q    +Q.    E  E  E
|----------------------------|--------------10-------|
|-(13)--(13)---(13)r13-10-13-|-(13)--(13)------13-12-|
|----------------------------|-----------------------|
|----------------------------|-----------------------|
|----------------------------|-----------------------|
|----------------------------|-----------------------|


   +Q    +Q.    E  E  S      +S     +Q    +Q.      E  +Q
|--------------------------------|-------------------------|
|-(12)--(12)---12-12-15b17==(15)-|-(15)--(15)r-------------|
|--------------------------------|---------------/12-(12)--|
|--------------------------------|-------------------------|
|--------------------------------|-------------------------|
|--------------------------------|-------------------------|


 Signature Lick
   S  S  S  S  S  S  S  S  S  S  S  S  S  S  S  S
|-17-14----------14-17-14----------14-17-14--------|
|-------15-14-15----------15-14-15----------15-14--|
|--------------------------------------------------|
|--------------------------------------------------|
|--------------------------------------------------|
|--------------------------------------------------|


   S  S  S  S  S  S  S  S  S  S  S  S  S  S  S  S
|-20-17----------17-20-17----------17-20-17-------|
|-------18-17-18----------18-17-18----------18-17-|
|-------------------------------------------------|
|-------------------------------------------------|
|-------------------------------------------------|
|-------------------------------------------------|


   S  S  S  S  S  S  S  S  S  S  S  S  S  S  S  S
|-19-16----------16-19-16----------16-19-16--------|
|-------17-16-17----------17-16-17----------17-16--|
|--------------------------------------------------|
|--------------------------------------------------|
|--------------------------------------------------|
|--------------------------------------------------|


   S  S  S  S  S  S  S  S  S  S  S  S  S  S  S  S
|-15-12----------12-15-12----------12-15-12-------|
|-------13-12-13----------13-12-13----------13-12-|
|-------------------------------------------------|
|-------------------------------------------------|
|-------------------------------------------------|
|-------------------------------------------------|


   S  S  S  S  S  S  S  S  S  S  S  S  S  S  S  S
|-17-14----------14-17-14----------14-17-14--------|
|-------15-14-15----------15-14-15----------15-14--|
|--------------------------------------------------|
|--------------------------------------------------|
|--------------------------------------------------|
|--------------------------------------------------|


   S  S  S  S  S  S  S  S  S  S  S  S  S  S  S  S
|-20-17----------17-20-17----------17-20-17-------|
|-------18-17-18----------18-17-18----------18-17-|
|-------------------------------------------------|
|-------------------------------------------------|
|-------------------------------------------------|
|-------------------------------------------------|


   S  S  S  S  S  S  S  S  S  S  S  S  S  S  S  S
|-19-16----------16-19-16----------16-19-16--------|
|-------17-16-17----------17-16-17----------17-16--|
|--------------------------------------------------|
|--------------------------------------------------|
|--------------------------------------------------|
|--------------------------------------------------|


   S  S  S  S  S  S  S  S  S  S  S  S  S  S  S  S
|-15-12-------15-12-------15-12-------15-12-------|
|-------13-12-------13-12-------13-12-------13-12-|
|-------------------------------------------------|
|-------------------------------------------------|
|-------------------------------------------------|
|-------------------------------------------------|


   S  S  S  S  S  S  S  S  S  S  S  S  S  S  S  S
|-17-14----------------------------------14-17-14--|
|-------15-14----------------------14-15-----------|
|-------------14-11----------11-14-----------------|
|-------------------12-11-12-----------------------|
|--------------------------------------------------|
|--------------------------------------------------|


   S  S  S  S  S  S  S  S  S  S  S  S  S  S  S  S
|-20-17----------------------------------17-20-17-|
|-------18-17----------------------17-18----------|
|-------------17-14----------14-17----------------|
|-------------------15-14-15----------------------|
|-------------------------------------------------|
|-------------------------------------------------|


   S  S  S  S  S  S  S  S  S  S  S  S  S  S  S  S
|-19-16----------------------------------16-19-16--|
|-------17-16----------------------16-17-----------|
|-------------16-13----------13-16-----------------|
|-------------------14-13-14-----------------------|
|--------------------------------------------------|
|--------------------------------------------------|


   S  S  S  S  S S  S S  S S  S  S  S  S  S  S
|-15-12-------------------------------12-15-12-|
|-------13-12-------------------12-13----------|
|-------------12-9---------9-12----------------|
|------------------10-9-10---------------------|
|----------------------------------------------|
|----------------------------------------------|


   S  S  S  S  S  S  S  S  S  S  S  S  S  S  S  S
|-17-14----------------------------------14-17-14--|
|-------15-14----------------------14-15-----------|
|-------------14-11----------11-14-----------------|
|-------------------12-11-12-----------------------|
|--------------------------------------------------|
|--------------------------------------------------|


   S  S  S  S  S  S  S  S  S  S  S  S  S  S  S  S
|-20-17----------------------------------17-20-17-|
|-------18-17----------------------17-18----------|
|-------------17-14----------14-17----------------|
|-------------------15-14-15----------------------|
|-------------------------------------------------|
|-------------------------------------------------|


   S  S  S  S  S  S  S  S  S  S  S  S  S  S  S  S
|-19-16--------------------------------------------|
|-------17-16--------------------------------------|
|-------------16-13--------------------------------|
|-------------------14-13----------------------13--|
|-------------------------14-11----------11-14-----|
|-------------------------------12-11-12-----------|


   S  S  S  S  S  S  S  S  Q   E  E
|----------------16-19-16-19--12-15-|
|----------16-17--------------12-14-|
|----13-16--------------------------|
|-14--------------------------------|
|-----------------------------------|
|-----------------------------------|


 Rock Style Solo
   +Q    +Q.    E  E  E        +E   S  S  E  E  +E   S  S  E  E
|-(15)--(15)---12-----------|-----------------------------------|
|-(14)--(14)----------------|-----------------------------------|
|-----------------14-14b16==|=(14)r14p12------------------12----|
|---------------------------|------------14-14-(14)-12h14----14-|
|---------------------------|-----------------------------------|
|---------------------------|-----------------------------------|


   E  E  E  E  E  E  E  E        +E    S  S  E  E  +H
|-----------------------------|---------------------------|
|-----------------------------|---------------------------|
|-----------------------------|---------------------------|
|-12--------------------------|---------------------------|
|----14-13-12-10----10-12b13==|=(12)r-12p10---------------|
|----------------12-----------|-------------12-12-(12)----|


  S  S  S  S  S  S S  S  S  S  S  S S  S  S  S
|-----------------------------------------------|
|-----------------------------------------------|
|-----------------------------------------------|
|-----------------------------------------------|
|-----------------------------------------------|
|-9-10-11-12-12-12-9-10-11-12-12-12-9-10-11-12--|


  S  S  S  S S  S  S S  E  E      +E    E
|-----------------------------------------|
|--------------------------------------12-|
|--------------------9-12-14b16==(14)r----|
|------------9-11-12----------------------|
|-9-10-11-12------------------------------|
|-----------------------------------------|


   E  E  E  S      +S    E  E  E  E    E      +E    E      +E   +Q    E E
|-12-----------------------12-------|---------------------------------0-0-|
|----15-12--------------12----15-12-|-15b17==(15)r-15b17==(15)-(15)r------|
|----------14b16==(14)r-------------|-------------------------------------|
|-----------------------------------|-------------------------------------|
|-----------------------------------|-------------------------------------|
|-----------------------------------|-------------------------------------|


 Over and Under Section 2
   S S S  S S S S S S S S S S S  S S    S S S  S S S S S S S S S S S  S S
|-12-0-0-10-0-0-8-0-7-0-0-8-0-0-10-0-|-12-0-0-10-0-0-8-0-7-0-0-8-0-0-10-0--|
|------------------------------------|-------------------------------------|
|------------------------------------|-------------------------------------|
|------------------------------------|-------------------------------------|
|------------------------------------|-------------------------------------|
|------------------------------------|-------------------------------------|


   S S S S S S  S S S S S S  S S S S    S S S  S S S S S S S S S S S  S S
|-12-0-0-3-0-0-12-0-0-3-0-0-12-0-3-0-|-12-0-0-10-0-0-8-0-7-0-0-8-0-0-10-0--|
|------------------------------------|-------------------------------------|
|------------------------------------|-------------------------------------|
|------------------------------------|-------------------------------------|
|------------------------------------|-------------------------------------|
|------------------------------------|-------------------------------------|


   S S S  S S S S S S S S  S S S S S   S S S S S S S S S S S S S S S S
|-12-0-0-10-0-0-8-0-7-0-0------------|----------------------------------|
|-------------------------10-0-0-8-0-|-7-0-0-5-0-0----------------------|
|------------------------------------|-------------7-0-5-0-0-4-0-0------|
|------------------------------------|-----------------------------7-0--|
|------------------------------------|----------------------------------|
|------------------------------------|----------------------------------|


                                                        Outro
  S S S S S S S S S S S S S S S S   S S S S S S E H        W            W
|---------------------------------|--------------------|-------------|--------|
|---------------------------------|--------------------|-------------|--------|
|---------------------------------|--------------------|-<12>--------|-<5>----|
|-5-0-0-4-0-0-2-0-----------------|--------------------|-<12>--------|-<5>----|
|-----------------5-0-0-3-0-0-2-0-|--------------------|-------------|--------|
|---------------------------------|-5-0-0-3-0-0-2-0----|-------------|--------|


    W            W            Q   Q   Q   Q
|-------------|------------|-----------------|
|-------------|------------|-17--16--15--16--|
|-<12>--------|-<5>--------|-----------------|
|-<12>--------|-<5>--------|-----------------|
|-------------|------------|-----------------|
|-------------|------------|-----------------|


                               |--3--|
   E  E  +E   +Q    +E   S  S  S  S  S
|-----------------------------------15-|
|-17-----------------------------17----|
|-----------------------------16-------|
|--------------------------17----------|
|----19-(19)-(19)--(19)-19-------------|
|--------------------------------------|


                        T
   |--3--|     |--3--|  |--3--|  |--3--|
   S  S  S  S  S  S  S  S  S  S  S  S  S  Q   +E   +S
|-19-15----------15h19-24p19p15------------------------*|
|-------17----17----------------17---------------------*|
|----------16----------------------16------------------*|
|-------------------------------------17---------------*|
|----------------------------------------19--(19)-(19)-*|
|------------------------------------------------------*|




--------------------------------------------------------------------------------


Duration Legend
---------------
W - whole; H - half; Q - quarter; E - 8th; S - 16th; T - 32nd; X - 64th; a - acciaccatura
+ - note tied to previous; . - note dotted; .. - note double dotted
Uncapitalized letters represent notes that are staccato (1/2 duration)
Irregular groupings are notated above the duration line
Duration letters will always appear directly above the note/fret number it represents the
duration for.  Duration letters with no fret number below them represent rests.  Multi-
bar rests are notated in the form Wxn, where n is the number of bars to rest for.  Low
melody durations appear below the staff

Tablature Legend
----------------
 h   - hammer-on
 p   - pull-off
 b   - bend
 pb  - pre-bend
 r   - bend release (if no number after the r, then release immediately)
 /\  - slide into or out of (from/to "nowhere")
 s   - legato slide
 S   - shift slide
 - natural harmonic
[n]  - artificial harmonic
n(n) - tapped harmonic
 ~   - vibrato
 tr  - trill
 T   - tap
 TP  - trem. picking
 PM  - palm muting
\n/  - tremolo bar dip; n = amount to dip
 \n  - tremolo bar down
 n/  - tremolo bar up
/n\  - tremolo bar inverted dip
 =   - hold bend; also acts as connecting device for hammers/pulls
 <> - volume swell (louder/softer)
 x   - on rhythm slash represents muted slash
 o   - on rhythm slash represents single note slash

Misc Legend
-----------
 |  - bar
||  - double bar
||o - repeat start
o|| - repeat end
*|  - double bar (ending)
 :  - bar (freetime)
 $  - Segno
 &  - Coda
Tempo markers -  = BPM(8/16=s8/s16), where s8 = swing 8ths, s16 = swing 16ths

Добавлено: 24.10.2013
Другие материалы по этой песне:
  • Аккорды и текст

Страница создана 24.10.2013
http://primanota.ru/michael-angelo/no-boundaries-chords.htm
Привет, Гость.
Предлагаем пройти революционный курс по гитаре.
Подарок от PrimaNota.Ru, забирай!