PrimaNota.ru - самый крупный в мире бесплатный архив песенных текстов, аккордов, табулатур и нот


Michael Angelo Batio - Time Traveller - таба, видео

Регистрация Запомнить меня
Войти через:  Facebook Google Twitter Vk Yandex Mail.ru

Michael Angelo Batio - Time Traveller - таба, видео

Печатать
Просмотров: 199
Уроки эстрадного вокала в Санкт-Петербурге
Credit to D-W8 for this tab :)

Just part of the solo ,it looks crazy and it is. This song is around 220bpm and is 
blisteringly fast.

Rythmn for the solo

E|-------------------------------------------------------------------------|
B|-------------------------------------------------------------------------|
G|-------------------------------------------------------------------------|
D|-------------------------------------------------------------------------|
A|-1-1-1-1-1-1-1-3--3-3-3-3-3-3--3-3-3-3-3--3--1--1-1-1--------------------|
E|-0-0-0-0-0-0-0-0--0-0-0-0-0-2--2-2-2-2-2--2--2--2-2-2--------------------|
     PM--------|    PM------|    PM------|        PM---|

Lead

E|--19-16-15-16-20-16-14-16-14-16-20----------14-16-20---------14-16-20----|
B|-----------------------------------14-16-20---------14-16-20----------14-|
G|-------------------------------------------------------------------------|
D|-------------------------------------------------------------------------|
A|-------------------------------------------------------------------------|
E|-------------------------------------------------------------------------|

E|--------14-16-20----------14-16-20----------14-16-20----------14-16-20---|
B|--16-20----------14-16-20----------14-16-20----------14-16-20----------14|
G|-------------------------------------------------------------------------|
D|-------------------------------------------------------------------------|
A|-------------------------------------------------------------------------|
E|-------------------------------------------------------------------------|

E|--------14-16-20----------14-15-14----------14-15-14----------14-15-14---|
B|--16-20----------14-16-20----------14-16-20----------14-16-20----------14|
G|-------------------------------------------------------------------------|
D|-------------------------------------------------------------------------|
A|-------------------------------------------------------------------------|
E|-------------------------------------------------------------------------|

E|--------14-15-14----------14-15-14----------14-15-14----------14-15-14---|
B|--16-20----------14-16-20----------14-16-20----------14-16-20----------14|
G|-------------------------------------------------------------------------|
D|-------------------------------------------------------------------------|
A|-------------------------------------------------------------------------|
E|-------------------------------------------------------------------------|

E|--------14-15-14----------14-15-14----------14-15-14----------14-15-18-20|
B|--16-20----------14-16-20----------14-16-20----------14-16-20------------|
G|-------------------------------------------------------------------------|
D|-------------------------------------------------------------------------|
A|-------------------------------------------------------------------------|
E|-------------------------------------------------------------------------|

E|--15-14-15-18-20-18-15-14-15-18-20-18-15-14-15-18-20-18-15-14-15-14------|
B|--------------------------------------------------------------------14-16|
G|-------------------------------------------------------------------------|
D|-------------------------------------------------------------------------|
A|-------------------------------------------------------------------------|
E|-------------------------------------------------------------------------|

E|-----20-14----------14-13-18-13-14-13-14----------14-13-18-13-14-13-14---|
B|--20-------15-13-15----------------------15-13-15----------------------15|
G|-------------------------------------------------------------------------|
D|-------------------------------------------------------------------------|
A|-------------------------------------------------------------------------|
E|-------------------------------------------------------------------------|

E|--------14-13-18-13-14-13-14----------14-13-18-13-14-13-14----------14-13|
B|--13-15----------------------15-13-15----------------------15-13-15------|
G|-------------------------------------------------------------------------|
D|-------------------------------------------------------------------------|
A|-------------------------------------------------------------------------|
E|-------------------------------------------------------------------------|

                                T        T        T       T        T
E|--18-13-14-13-14-------------------------------------5h13p8p5h8----------|
B|-----------------15-13-15-13h16p10-13h16p10-13h16p10---------------------|
G|-------------------------------------------------------------------------|
D|-------------------------------------------------------------------------|
A|----------------------------------------------------------------15p10p7--|
E|-------------------------------------------------------------------------|

     T       T            T
E|------------------------------18-17-16-15--------------------------------|
B|------------------------------------------18-17-16-15--------------------|
G|------------------------------------------------------19-18-17-16--------|
D|------------------------------------------------------------------19-18--|
A|--15p10p7-15p10p7h10p7-15p10---------------------------------------------|
E|-------------------------------------------------------------------------|

E|-------------------------------------------------------------------------|
B|--------------------17-16-15-14-13-14-15-16-15-14-13vvv------16b(18)-----|
G|--------17-16-15-14--------------------------------------14--------------|
D|--17-16------------------------------------------------------------------|
A|-------------------------------------------------------------------------|
E|-------------------------------------------------------------------------|

     T           T     T        T        T       T         T        T
E|--18p14p10----------21p18p14----------19p13h15-------------------21p18p14|
B|-----------15h18p12----------19p11h14-------------------19p11h14---------|
G|-----------------------------------------------18p10h11------------------|
D|-------------------------------------------------------------------------|
A|-------------------------------------------------------------------------|
E|-------------------------------------------------------------------------|

     T                    T        T       T        T        T           
E|--------------------------------------------17p13h20p13------------------|
B|--19p11h14p11h14---------------------------------------------------------|
G|-----------------10h13h18p10h13h18p10h13h18-------------10h18p15p10------|
D|-------------------------------------------------------------------------|
A|-------------------------------------------------------------------------|

        T          T
E|------------------------------19-24p19----------------14h18p14h18p14vvv--|
B|--11h19p14-----------------20----------20----------14--------------------|
G|-----------10h14h17p10--22----------------22p19-17-----------------------|
D|-------------------------------------------------------------------------|
A|-------------------------------------------------------------------------|
E|-------------------------------------------------------------------------|
E|-------------------------------------------------------------------------|

E|-----22b(24)vvv--22vvv---------------------------------------------------|
B|--17-------------------18vvv-----20b(22)---------------------------------|
G|------------------------------17-----------------------------------------|
D|-------------------------------------------------------------------------|
A|-------------------------------------------------------------------------|
E|-------------------------------------------------------------------------|
Добавлено: 10.05.2012
Другие материалы по этой песне:
  • Аккорды и текст

Страница создана 04.05.2012
http://primanota.ru/michael-angelo-batio/time-traveller-chords.htm
Привет, Гость.
Предлагаем пройти революционный курс по гитаре.
Подарок от PrimaNota.Ru, забирай!