PrimaNota.ru - самый крупный в мире бесплатный архив песенных текстов, аккордов, табулатур и нот


Michael Angelo Batio - Rain Forest - таба, видео

Регистрация Запомнить меня
Войти через:  Facebook Google Twitter Vk Yandex Mail.ru

Michael Angelo Batio - Rain Forest - таба, видео

Печатать
Просмотров: 186
Michael Angelo Batio
Rain Forest
Tuning - half step down

Not the full song sorry ,will finish.Listen to song to 
hear how the notes should be played.Should be quite 
accurate
*Update - Added intro riff 
        - Changed part in main riff to powerchords
        - Added clean section
        - Added extra parts
*Update - Added bridge section
        - Working on solo
Legend-
h = hammer on
p = pull off
b = bend (target note in brackets)
v = vibrato (more v's longer note is held)
t = tap

Intro
  
|----------------------------------------------------------------------|
|----------------------------------------------------------------------|
|----------------------------------------------------------------------|
|---------------4-5-4-------4-5-4-------4-5-4-------2-4-5-4------------|
|--2-3-2----2-3-2-3-2-3-2-3-2-3-2-3-2-3-2-3-2-3-2-3-0-2-3-2-3-----6-7--|
|--------1--0-1-------1-0-1-------1-0-1-------1-0-1---------1-----4-5--|
           *-------------------------------------------------* Repeat x 3 
Main Riff
   
|------------------------------------------------------------------|
|------------------------------------------------------------------|
|---------------------1--1h2-1P.H.---------------------------------|
|--------2--2h3-2--------------------------------------------------|
|--2------------------------------------2--2h3-2P..H.----3--6--2---|
|--0--0------------0-----------------0----------------0--1--4--0---|
      p.m         p.m               p.m              p.m

|------------------------------------------------------|
|------------------------------------------------------|
|----------------0-1-2-1-------------------------------|
|---------0-2-3----------3-2-0-------------------------|
|--0-2-3------------------------3-2-0---------0-2-3-4--|
|--------------------------------------1-4-1-----------|

|------------------------------------------------------|
|------------------------------------------------------|
|------------------------------------------------------|
|------------------------------------------------------|
|-----------4-3-2-0------------------------------------|
|--4-4-0-4----------5vvv-------------------------------|

Clean Section
  
|--0----------------------------------------------5----------------------|
|--1--------------1---0h1p0-----------------------5-----------0h1p0------|
|--2-----------2---------------0--------------2---5---------1-------0----|
|-----------2----------------------2-------2--------------2-----------2--|
|---------------------------------------0--------------2-----------------|
|------------------------------------------------------------------------|
                                      *------------------------------*Repeat

Part after clean rythmn guitar
|------------------------------------------------------|
|--15b(17)-15-13-15vvv--13----------------13p12--------|
|--------------------------16-12----12-16-------14vv---|
|--------------------------------14--------------------|
|------------------------------------------------------|
|------------------------------------------------------|

|--------12v--15-12------------------------------------|
|-----13------------12-15-17vv--17h18p17---------------|
|--14------------------------------------14vvv---------|
|------------------------------------------------------|
|------------------------------------------------------|
|------------------------------------------------------|

|--17-19-20vvv--22-17-19vv-19----19v--17-15-13---------|
|-----------------------------20---------------12------|
|-------------------------------------------------9-10-|
|------------------------------------------------------|
|------------------------------------------------------|
|------------------------------------------------------|

|------------------------------------------------------|
|------------------------------------------------------|
|--9-----------------------------2h10h5-------2h10h5h2-|
|----10-9vv--------------------------------------------|
|-------------------------3h12h7-------3h12h7----------|
|------------4h12h74h12h7------------------------------|
                t     t     t      t     t      t
|----------------------11h17h14--------11h17h14--------|
|-3h13h9h3h13h9-----------------6h13h9----------10h19h-|
|--------------2h10h5----------------------------------|
|------------------------------------------------------|
|------------------------------------------------------|
|------------------------------------------------------|
    t      t     t        t       t       t        t
|--------------11h17h14--------11h17h14-16h21h17h16h17-|
|--15h19h10h15-----------------------------------------|
|----------------------9h15h12-------------------------|
|------------------------------------------------------|
|------------------------------------------------------|
|------------------------------------------------------|
     t            t      t        t        t        
|--19-19-17-19-20vvv-----------------------------------|
|---------------------13-12-15-13-15vvvv---------------|
|------------------------------------------------------|
|------------------------------------------------------|
|------------------------------------------------------|
|------------------------------------------------------|
Main Theme
|------------------------------------------------------|
|-----17-17----15-15----13-13------13/17v-----17-17----|
|--14-------14-------14---------14---------14-------14-|
|------------------------------------------------------|
|------------------------------------------------------|
|------------------------------------------------------|

|------------------------------------------------------|
|-----15-15----13-13----15b(17)-----17-17----15-15-----|
|--14-------14-------14----------14-------14-------14--|
|------------------------------------------------------|
|------------------------------------------------------|
|------------------------------------------------------|
                                        t
|---------------------------------16h19h24-------------|
|--13/15-17br(19)vv------------17--------------------17|
|---------------------------16--------------------16---|
|------------------------17--------------------17------|
|---------------------19--------------------19---------|
|------------------------------------------------------|
         t
|--16h19h24--------------16h19vvvvv--------------------|
|---------------------17-------------------------------|
|------------------16----------------------------------|
|---------------17-------------------------------------|
|------------19----------------------------------------|
|------------------------------------------------------|

|------------------------------------------------------|
|------------------------------------------------------|
|----------------0-1-2-1-------------------------------|
|---------0-2-3----------3-2-0-------------------------|
|--0-2-3------------------------3-2-0---------0-2-3-4--|
|--------------------------------------1-4-1-----------|

|------------------------------------------------------|
|------------------------------------------------------|
|------------------------------------------------------|
|------------------------------------------------------|
|-----------4-3-2-0------------------------------------|
|--4-4-0-4----------5vvv-------------------------------|

|--21b(23)-19-21vvv---------------------------------------12-15-12-|
|----------------------13----------------13p12---------13----------|
|-------------------------16-12----12-16-------14v--14-------------|
|-------------------------------14---------------------------------|
|------------------------------------------------------------------|
|------------------------------------------------------------------|

                                    T        T       T         T
|-------------------------------------------------11h17p14-16h21p17-|
|--15-13---15-17-17-18-17-------------------------------------------|
|--------------------------14------------10h19p15-------------------|
|--------------------------------9h15p12----------------------------|
|-------------------------------------------------------------------|
|-------------------------------------------------------------------|

                           T        T       T        T       T
|--------20-24p20---------------------------------------------------|
|-----21----------21-----------------------------10h19p15-----------|
|--22----------------22---------10h19p15----------------------------|
|-----------------------9h15p12----------9h15p12--------------------|
|---------------------------------------------------------10h14p7p5-|
|-------------------------------------------------------------------|

|------------------------------------------------------------------|
|--13-----------------15--12---------------------------------------|
|------16----------14---------12--------------14-------------------|
|----------14v--14---------------14--------14----------------------|
|-----------------------------------15--14-------15-14-10----------|
|---------------------------------------------------------12-8-7v--|
    
     T       T        T        T
|------------------------------------19--20--17v-------------------|
|--------------------------10h19p15---------------12-13-15-15v--15-|
|-----------------10h19p15-----------------------------------------|
|---------9h15p12--------------------------------------------------|
|------------------------------------------------------------------|
|--6h13p9----------------------------------------------------------|

|--------12--------------------------------------------------------|
|--13-12-----15b(17)--15-13-12-13-17v--13--12vv--------------------|
|------------------------------------------------------------------|
|------------------------------------------------------------------|
|------------------------------------------------------------------|
|------------------------------------------------------------------|


Main Theme
|------------------------------------------------------|
|-----17-17----15-15----13-13------13/17v-----17-17----|
|--14-------14-------14---------14---------14-------14-|
|------------------------------------------------------|
|------------------------------------------------------|
|------------------------------------------------------|

|------------------------------------------------------|
|-----15-15----13-13----15b(17)-----17-17----15-15-----|
|--14-------14-------14----------14-------14-------14--|
|------------------------------------------------------|
|------------------------------------------------------|
|------------------------------------------------------|
                                        t
|---------------------------------16h19h24-------------|
|--13/15-17br(19)vv------------17--------------------17|
|---------------------------16--------------------16---|
|------------------------17--------------------17------|
|---------------------19--------------------19---------|
|------------------------------------------------------|
         t
|--16h19h24--------------16h19vvvvv--------------------|
|---------------------17-------------------------------|
|------------------16----------------------------------|
|---------------17-------------------------------------|
|------------19----------------------------------------|
|------------------------------------------------------|

Bridge Section
 
  * REPEAT 3 TIMES *
|------------------------------------------------------------------|
|------------------------------------------------------------------|
|---------------------1--1h2-1P.H.---------------------------------|
|--------2--2h3-2--------------------------------------------------|
|--2------------------------------------2--2h3-2P..H.----3--6--2---|
|--0--0------------0-----------------0----------------0--1--4--0---|
      p.m         p.m               p.m              p.m


|------------------------------------------------------------|
|------------------------------------------------------------|
|------------------------------------------------------------|
|--7--6---------7--6---------7--6P.H.------------7-----------|
|--------7--5v--------7--5v------------7--5P.H.------3--6----|
|----------------------------------------------------1--4----|

|-----------------------------------------------------------------------|
|-----------------------------------------------------------------------|
|----------------0-1-2-1------------------------------------------------|
|---------0-2-3----------3-2-0------------------------------------------|
|--0-2-3------------------------3-2-0---------0-2-3-4---------4-3-2-0---|
|--------------------------------------1-4-1----------4-4-0-4-----------|

  * REPEAT BOTTOM 2 SECTIONS TWICE *
|----------------------------------------------------------|
|----------------------------------------------------------|
|--------------------------------------2-4-2---------------|
|--------2h3h5-5-3-2-------------2h3h5-------5-3-2---------|
|--2h3h5-------------5-3-2-2h3h5-------------------5-3-2---|
|----------------------------------------------------------|

|--------------------------------------------------------------|
|--------------------------------------------------------------|
|--------------2-4-5-4-2---------------------------------------|
|--------2h3h5-----------5-3-2-------------2h3h5-5-3-2---------|
|--2h3h5-----------------------5-3-2-2h3h5-------------5-3-2---|
|--------------------------------------------------------------|

  * REPEAT BOTTOM 2 SECTIONS TWICE *
|--------------------------------------------------------------------------|
|--------------------------------------------------------------------------|
|--------------------------------------------------------14-16-14----------|
|-----------14h15h17-17-15-14-------------------14h15h17----------17-15-14-|
|--14h15h17-------------------17-15-14-14h15h17----------------------------|
|--------------------------------------------------------------------------|

|-----------------------------------------------------------------|
|-----------------------------------------------------------------|
|-----------------------------14-16-17-16-14----------------------|
|--------------------14h15h17----------------17-15-14-------------|
|--17-15-14-14h15h17----------------------------------17-15-14----|
|-----------------------------------------------------------------|

|----------------------------------------|
|----------------------------------------|
|----------------------------------------|
|-----------14h15h17-17-15-14------------|
|--14h15h17-------------------17-15-14---|
|----------------------------------------|


Добавлено: 30.06.2012
Другие материалы по этой песне:
  • Аккорды и текст

Страница создана 30.06.2012
http://primanota.ru/michael-angelo-batio/rain-forest-chords.htm
Привет, Гость.
Предлагаем пройти революционный курс по гитаре.
Подарок от PrimaNota.Ru, забирай!