PrimaNota.ru - самый крупный в мире бесплатный архив песенных текстов, аккордов, табулатур и нот


Michael Angelo Batio - Peace - таба, видео

Регистрация Запомнить меня
Войти через:  Facebook Google Twitter Vk Yandex Mail.ru

Michael Angelo Batio - Peace - таба, видео

Печатать
Просмотров: 252
Уроки эстрадного вокала в Санкт-Петербурге
Intro riff, aka the rhythm guitar part* for the entire song.


4/4, MM ~74
~0:22
e|-----0^---------0-----0-|-----8-----------8-----|-----3^---3----------|
B|-----0|-----------0-----|---6---------6-5---6---|-----3|-----3--------|
G|-----5|-------5-----5---|-----------7---------7-|-----4|--------------|
D|-----7|-----------------|-0---------------------|---5-5|--------------|
A|---7-------7------------|-----------------------|-2------------2-3-5--|
E|-5----------------------|-----------------------|---------------------|
   1 + 2 + 3 + a 4 e + a   1 + 2 + 3  + a 4 e + a   1 + 2  + 3 e + 4 + 

e|-------------------------|-----1^---------1-----|-----1p0-----------1----------|
B|-1---1---------1-------3-|-----1|-------1-------|---------3-------3---------3--|
G|-2---0-------0-------0---|-----2|-----2---------|---2-------2---2---------2----|
D|-3---2-----2-------0-----|---3-3|---3-----------|-0-----------0---------3------|
A|-3---3---3-------2-------|-0--------------------|------------------------------|
E|-------------------------|------------------1-0-|---------------------1--------|
   1 + 2 + 3 e + a 4 e + a   1 + 2  + 3 e + a 4 +   1 + 2 e + a 3 e + a 4 e + a

e|---------------0---------------|---------------3--------|
B|-0-----0---------0-----0-------|-------0---3------------|
G|-----1---1---------1-----1-----|-----0---0---0----------|
D|-2-2-------2---------2---------|---0--------------------|
A|-------------2-----------------|------------------------|
E|---------------------------0-2-|-3----------------------|
   1 + a 2 e + a 3 e + a 4 e + a   1 + a 2 e + a 3 + 4 +

*this is definitely what you were looking for, wasn't it...?


************************************
SHORTHAND KEY

| p   pull-off

^     strum in indicated direction
'

1 whole measure of counting in 4/4:

s = sixteenth, i = eighth
q = quarter, h = half, w = whole
                             bar line
1 e + a 2 e + a 3 e + a 4 e + a |<-'
s s s s s s s s s s s s s s s s |
i   i   i   i   i   i   i   i   |
q       q       q       q       |
h               h               |
w                               |

:P for the whole note.
************************************
Добавлено: 12.08.2015
Другие материалы по этой песне:
  • Аккорды и текст

Страница создана 12.08.2015
http://primanota.ru/michael-angelo-batio/peace-chords.htm
Привет, Гость.
Предлагаем пройти революционный курс по гитаре.
Подарок от PrimaNota.Ru, забирай!