PrimaNota.ru - самый крупный в мире бесплатный архив песенных текстов, аккордов, табулатур и нот


Michael Angelo Batio - Hands Without Shadows - таба, видео

Регистрация Запомнить меня
Войти через:  Facebook Google Twitter Vk Yandex Mail.ru

Michael Angelo Batio - Hands Without Shadows - таба, видео

Печатать
Просмотров: 166
Уроки эстрадного вокала в Санкт-Петербурге
Time Sig: 7/4
          e|-----------------------------|
          B|-----------------------------|
          G|---------5-----9---5---------|
          D|-----9-----7-------------9-7-|
          A|---7---9-----9---9---7-9-----|
          E|-5---------------------------|


13/8                       x2
e----------------------------|
B----------------------------|
G---------55-----9---5-------|
D-----9------7-------------9-|
A---7---9------9---9---7-9---|
E-5--------------------------|


11/8
e--------------------------------------|
B--------------------------------------|
G-----3-----------5--------------------|
D---2-------3---5-----4----------------|
A-1-------3---3-----2------------------|
E-------1------------------------------|

PLay first bar again then second bar (second bar only once) then:

12/8
e---------------------------------------|
B---------------------------------------|
G---------55-----9---5------------------|
D-----9------7--------------------------|
A---7---9------9---9---7-9--------------|
E-5-------------------------------------|


7/8
e---------------------------------------|
B---------------------------------------|
G---------------------------------------|
D-9-7-5---------------------------------|
A-------9-7-5---------------------------|
E-------------8-7-----------------------|

Then go to 3rd bar (one with the 123 chord)

now play

6/4
e--------------------------------------|
B--------------------------------------|
G-----8------------10------------------|
D---8-------8---10-------9-------------|
A-6-------8---8---------9--------------|
E-------6-------------7----------------|


oh and everybody please know that billy talent
sucks ok. i am going to  change my name to a better band like trivium,
tool, carcass, at the gates, lamb of god or winds of plague.
see ya!
Добавлено: 24.07.2012
Другие материалы по этой песне:

Страница создана 18.03.2012
http://primanota.ru/michael-angelo-batio/hands-without-shadows-chords.htm
Привет, Гость.
Предлагаем пройти революционный курс по гитаре.
Подарок от PrimaNota.Ru, забирай!