PrimaNota.ru - самый крупный в мире бесплатный архив песенных текстов, аккордов, табулатур и нот


Mib - Only Hard For Me - таба, видео

Регистрация Запомнить меня
Войти через:  Facebook Google Twitter Vk Yandex Mail.ru

Mib - Only Hard For Me - таба, видео

Печатать
Просмотров: 73
-------------------------------------------------------------------------------
                              M.I.B - Only Hard For me
                              http://www.m-i-b.co.kr/

-------------------------------------------------------------------------------
Tabbed By : Kshitiz Rana

Tuning : Standard

Note: s = slide 

Beautiful song to learn, enjoy ^ ^
-------------------------------------------------------------------------------

~~~~~~
Intro:
~~~~~~

e|--14s16-14-13-----------------------------14s16-14-13---------------------------------|(2 times)
b|--------------14s16-14-13--13s14-13--------------------14s16-14-13--13s14-13--14s16---|
g|------------------------------------13------------------------------------------------|
d|--------------------------------------------------------------------------------------|
a|--------------------------------------------------------------------------------------|
e|--------------------------------------------------------------------------------------|

~~~~~~~
Chords:**It is the same for the rest of the song**
~~~~~~~

e |---1-------2-------4--------4----------|
b |---2-------2-------4--------4----------|
g |---3-------3-------6--------5----------|
d |---3-------4-------6--------6----------|
a |---1-------4-------4--------6----------|
e |-----------2----------------4----------|

-------------------------------------------------------------------------------
~End~
Добавлено: 31.10.2013
Другие материалы по этой песне:
  • Аккорды и текст

Страница создана 31.10.2013
http://primanota.ru/mib/only-hard-for-me-chords.htm
Привет, Гость.
Предлагаем пройти революционный курс по гитаре.
Подарок от PrimaNota.Ru, забирай!