PrimaNota.ru - самый крупный в мире бесплатный архив песенных текстов, аккордов, табулатур и нот


Miaoux Miaoux - Luxury Discovery - бас-таба, видео

Регистрация Запомнить меня
Войти через:  Facebook Google Twitter Vk Yandex Mail.ru

Miaoux Miaoux - Luxury Discovery - бас-таба, видео

Печатать
Просмотров: 44
Уроки эстрадного вокала в Санкт-Петербурге
Artist website: http://www.chemikal.co.uk/artists/miaoux-miaoux/

Artist: Miaoux Miaoux
Song: Luxury Discovery
Album: School of Velocity 
Tuning: 4 string bass (E A D G)


Notes: 
- this song has a nice groove with subtle timings, so listen to it closely. 
- I'm 98% happy with this tab, but it could be improved  during the breakdown and some fills
- timing based upon official youtube video for this song
https://www.youtube.com/watch?v=_zhs7o_GNUs&feature=youtu.be


 
INTRO (no bass)

VERSE 1 (0.09)
               "Oh my god...          it really is beautiful..."
G| -----------------------|-----------9 11-------------|
D| -----------------------|-9--------------12--9-11----|
A| -9------7--------------|---9---7----------------12--|
E| ---9-/7----7/12 12 12--|----------------------------|

              "Oh my god...          it really is beautiful to me as well"
G| -----------------------|-----------9 11---------------------|
D| -----------------------|-9--------------12--9-11------------|
A| -9------7--------------|---9--7----------------12-9-11-9-7--|
E| ---9-/7----7/12 12 12--|------------------------------------|


              "I saw gold...          silver and jewellery..."
G| -----------------------|-------------------9 11------------|
D| -----------------------|-9---------------------12--9-11----|
A| -9------7--------------|---9-/11-7---7-7---------------12--|
E| ---9-/7----7/12 12 12--|-----------------------------------|

              "Oh my god...          it really is beautiful to me as well"
G| -----------------------|-------------9 11-----------------------|
D| -----------------------|-9----------------12--9-11--------------|
A| -9---------------------|---/11 \9-7----------------12-9-11-9-7--|
E| ---9-/7-0--7/12 12 12--|----------------------------------------|



CHORUS 1 (0.51) 

"I got to get that feeling... I got to cut that feeling....."
G| ----------------------|
D| ---------------2-2-4--|
A| -2-2h4----------------|
E| ------2-2h4-0---------|

"I gotta keep that feeling... I got to get it ... hey"

[NB: this fill probably isn't perfect]
G|-------------------4-4--2 2-----|
D|-------4-4h6-2---0-----2---2-4--|
A|-2-2h4--------------------------|
E|--------------------------------|

"I got to get that feeling... I got to cut that feeling..."
G| ----------------------|
D| ---------------2-2-4--|
A| -2h4------------------|
E| ------2-2h4-0---------|

"I gotta keep that feeling... I got to get it..."
G|------------------------|
D|-------4-4h6-2---2-2----|
A|-2-2h4------------------|
E|---------------------2--|



VERSE 2 (1.11)
              "Oh my god...              infinite luxury..."
G| -----------------------|----------9-9---9 11------------|
D| -----------------------|-9------------------12--9-11----|
A| -9------7--------------|---9---7--------------------12--|
E| ---9-/7----7/12 12 12--|--------------------------------|

              "Oh my god...         Take me away from the world that I'm on"
G| -----------------------|-----------9 11------------------------|
D| -----------------------|-9--------------12--9-11---------------|
A| -9------7--------------|---9-/11-7----------------12-9-11-9-7--|
E| ---9-/7----7/12 12 12--|---------------------------------------|


              "No regrets...              All opportunity ..."
G| -----------------------|-----------9-9---9 11-------------|
D| -----------------------|-9-------------------12--9-11-----|
A| -9------7--------------|---9-/11-7--------------------12--|
E| ---9-/7----7/12 12 12--|----------------------------------|

              "Oh my god...          it really is beautiful to me as well"
G| -----------------------|-----------9 11-----------------------|
D| -----------------------|-9--------------12--9-11--------------|
A| -9------7--------------|---9h11-7----------------12-9-11-9-7--|
E| ---9-/7----7/12 12 12--|--------------------------------------|



CHORUS 2 (1.52)

"I got to get that feeling... I got to cut that feeling..."
G| ----------------------|
D| ---------------2-2-4--|
A| -2-2h4----------------|
E| ------2-2h4-0---------|

"I gotta keep that feeling... I got to get it ... hey"
[NB: again this fill probably isn't quite right]
G|-------------------4-4---2 2-----|
D|-------4-4h6-2---0----2-----2-4--|
A|-2-2h4---------------------------|
E|---------------------------------|


"I got to get that feeling... I got to cut that feeling..."
G| ----------------------|
D| ---------------2-2-4--|
A| -2h4------------------|
E| ------2-2h4-0---------|

"I gotta keep that feeling... I got to get it..."
G|-------------------2-----|
D|-------4-4h6-2---0--2-4--|
A|-2-2h4-------------------|
E|-------------------------|



BREAKDOWN (2.14) [NB: this isn't perfect, rather a close approximation]

G|----------16--------|-----------------|--------------------|
D|---16--16---16------|-------15--------|------14-/16--------|
A|-----14-------14----|----15----15-----|-------------16-14--|
E|----------------13--|-13----------12--|--12----------------|
 
G|---------------|---------------|---------|------------------------------------|
D|------13--13---|---12---12-----|--11-----|------------------------------------|
A|----13--13-----|----- 12--12---|------11-|------------------------------------|
E|-11------------|-10------------|-9-------|-2-2-2-2--2-2-2-2--2-2-2-2--2-2/14--|



MIDDLE 8  (2.34) 
No bass in this section



CHORUS 3 (2.55)
"I got to get that feeling... I got to cut that feeling..."

G| ----------------------|
D| ---------------2-2-4--|
A| -2-4------------------|
E| ------2-2h4-0---------|

"I gotta keep that feeling... I got to get it ... hey"
[NB: again this fill probably isn't quite right]
G|---------------------4-4---2-----|
D|-------4-4h6-2---0-2-----2--2-4--|
A|-2-2h4---------------------------|
E|---------------------------------|

"I got to get that feeling... I got to cut that feeling..."
G| ----------------------|
D| ---------------2-2-4--|
A| -2-2h4----------------|
E| ------2-2h4-0---------|

"I gotta keep that feeling... I got to get it..."
G| ------------------------|
D| -----------------2------|
A| -2-2h4---------2----2---|
E| ------2-2h4-0-----2-----|



BRIDGE  (3.16)
"oh my god" x5 - no bass



OUTRO (3.36)
    "oh my god...            oh my god..."
G| ----------------------|----------------------|
D| --9-------------------|-7h9------------------|
A| ----9/11--------------|----0-9/11------------|
E| ---------4---4-4-4-4--|-----------4--4-4-4---|
 

 m   "oh my god...            oh my god..."
G| ----------------------|------------------------|
D| --9-------------------|-7h9--------------------|
A| ----9/11--------------|----0-9/11--------------|
E| ---------4---4-4-4-4--|-----------4--4-4-4/16--|
 
Добавлено: 13.12.2015
Другие материалы по этой песне:
  • Аккорды и текст

Страница создана 13.12.2015
http://primanota.ru/miaoux-miaoux/luxury-discovery-chords.htm
Привет, Гость.
Предлагаем пройти революционный курс по гитаре.
Подарок от PrimaNota.Ru, забирай!