PrimaNota.ru - самый крупный в мире бесплатный архив песенных текстов, аккордов, табулатур и нот


Mia Dyson - Roll On - таба, видео

Регистрация Запомнить меня
Войти через:  Facebook Google Twitter Vk Yandex Mail.ru

Mia Dyson - Roll On - таба, видео

Печатать
Просмотров: 97
Уроки эстрадного вокала в Санкт-Петербурге
This is a great song by a truly great singer and is quite easy to play along
 to, you just need to get the rhythm and fills right with the main chord.

The main chord throughout is based around this:

E|------4------4-------|
B|------4------4h5-----|
G|------4------4-------|
D|------4------4h6-----|
A|------x------x-------|
E|------7------x-------|

The intro lick is something like

E|--------4--------------------|
B|--------5--5p4---------------|
G|--------4-------6p4------4---|
D|--------6-----------6p4------|
A|-----------------------------|
E|-----------------------------|



Other chords played throughout the verse section (sometimes it's both and
sometimes is just Emaj) after the above chord are:

Emaj

E|------0-----0-----|
B|------0-----0-----|
G|------1-----2-----|
D|------2-----2-----|
A|------2-----2-----|
E|------0-----0-----|


F#maj

E|------2------|
B|------2------|
G|------3------|
D|------4------|
A|------4------|
E|------2------|


The bridge is alternates b/w the main chord and:

C#m

E|------4------|
B|------5------|
G|------6------|
D|------6------|
A|------4------|
E|-------------|

Then goes to:

G#m

E|-------------|
B|----4--------|
G|----4--------|
D|----5--------|
A|----5--------|
E|----4--------|


F#maj

E|------2------|
B|------2------|
G|------3------|
D|------4------|
A|------4------|
E|------2------|

Then Emaj followed by F#maj for the "Wow-oh-ohhhhhh" part. Finally back to the principle chord.

Hope this makes sense.

Mia rocks!

http://www.miadyson.com/
Добавлено: 13.08.2013
Вам также может быть интересно:
Другие материалы по этой песне:
  • Аккорды и текст

Страница создана 13.08.2013
http://primanota.ru/mia-dyson/roll-on-chords.htm
Привет, Гость.
Предлагаем пройти революционный курс по гитаре.
Подарок от PrimaNota.Ru, забирай!