PrimaNota.ru - самый крупный в мире бесплатный архив песенных текстов, аккордов, табулатур и нот


Mia Dyson - Roll Me Out - таба, видео

Регистрация Запомнить меня
Войти через:  Facebook Google Twitter Vk Yandex Mail.ru

Mia Dyson - Roll Me Out - таба, видео

Печатать
Просмотров: 83
Capo 2

Intro and main chord (Amaj):

E|---2-------2-----|
B|---2-------2-----|
G|---2-------2-----|  x 3
D|---2-------2-----|
A|---0-0-3-4-------|
E|-----------------|

Riff:

E|-----------------|
B|-----------------|
G|---4/6--4--2--4--|  x2
D|-----------------|
A|---0-------0-----|
E|-----------------|

Verse play main chord for half then walk up to:

Rhythms are not transcribed, start with playing just the bass notes and
you'll know when to be where.


E|---2------------------------------------2--------2----|
B|---2---------5-5-5----------------------2--------2----|
G|---2---------5-5-5----------------------2--------2----|
D|---2---------7-7-7------5-7---4-4-4-4---2--------2----|
A|---0--2--4---5-5-5--5-7-------2-2-2-2---0--4--2--0----|
E|-------------------------------------------2--0-------|

Just before chorus play main chord walk up then go into chorus:

Chords shown (no rhythm)

    Amaj     Gmaj      D6/Bm7     Amaj

E|---5--------3---------2----------2-----|
B|---5--------3---------3----------2-----|
G|---6--------4---------4----------2-----|
D|---7--------5---------4----------2-----|
A|---7--------5---------0----------0-----|
E|---5--------3--------------------------|



The song repeats these parts with variations. Listen to the chord changes
and work out for yourself where to change. This is only a rough idea so you
can play to the song. Enjoy!

Mia rocks!

James

http://www.miadyson.com/
Добавлено: 10.11.2013
Вам также может быть интересно:
Другие материалы по этой песне:
  • Аккорды и текст

Страница создана 10.11.2013
http://primanota.ru/mia-dyson/roll-me-out-chords.htm
Привет, Гость.
Предлагаем пройти революционный курс по гитаре.
Подарок от PrimaNota.Ru, забирай!