PrimaNota.ru - самый крупный в мире бесплатный архив песенных текстов, аккордов, табулатур и нот


Mi2 - Samo Tebe Te Imam - таба, видео

Регистрация Запомнить меня
Войти через:  Facebook Google Twitter Vk Yandex Mail.ru

Mi2 - Samo Tebe Te Imam - таба, видео

Печатать
Просмотров: 119
by Galex
UVOD:
                              3x
                     ||:                     :||
E|-------------------|------------------------|-- pa C dol udariš da končaš uvod
H|--15-----12----9---|-----5-----------6------|--
G|--13-----12----9---|-------4-----------5----|--
D|--15-----12----10--|---------5-----------6--|--
A|-------------------|--3---------3/4---------|--
E|-------------------|------------------------|--


verz 1:
C                      Dm    G
V malem kraju, v mali ulici
                 C
stal je mali nočni bar
                   Dm          G
tam si dobo, če si bil fejst sam
                  C
ljubit že za mali dnar.


verz 2:
C                      Dm    G
Glavna faca pa je bil Madžar
                C
ki je tam tu pa tam igral
                   Dm          G
znal je špilat samo en komad
                  C
pa še tega bol naspou. 


Refren:
               F   G
Samo tebe te imam
                C
samo tebe te ne dam
                   Dm     G
samo s teboj se poljubljava 
               C
samo s teboj se igram.

               F   G
Samo tebe te imam
                Am     D
samo tebe te ne dam
                 Dm         G
samo tebe sanjam noč in dan
                   C
ko sma skupaj, nisn sam.

solo(2x)

--------------5-6---6-6-6--5-------------------------------5---5-5-5----------------|
---------5-6--------------------8-6-5----------------5--8--------------8-6-5--------|
-7-7-7------------------------------------5-5-5--7-----------------------------7----|
------------------------------------------------------------------------------------|
------------------------------------------------------------------------------------|
------------------------------------------------------------------------------------|


--------------5-6---6-6-6--5-------------------------------------------|
---------5-6--------------------8-6-5-------5/8-6---5------------------|
-7-7-7--------------------------------------------------7--7--(6--5)---|
-----------------------------------------------------------------------|
-----------------------------------------------------------------------|
-----------------------------------------------------------------------|

verz 3:
C                      Dm    G
Bil sn tiste lete dosti sam
                C
pa sn rad zahajal v bar
                   Dm          G
včasih sn si samo spil par piv
                  C
včasih sn kaj odpelal.

verz 4:

C                      Dm    G
On Madžar pa je še kr igral
                C
en in isti fauš komad
                   Dm          G
res ni bil rojen za muziko
                  C
jo je mel pa strašno rad.


Refren:
               F   G
Samo tebe te imam
                C
samo tebe te ne dam
                   Dm     G
samo s teboj se poljubljava 
               C
samo s teboj se igram.

               F   G
Samo tebe te imam
                Am     D
samo tebe te ne dam
                 Dm         G
samo tebe sanjam noč in dan
                   C
ko sma skupaj, nisn sam.

ZAKLJUČEK:

Akorda 3x:

   C   Em9
|--0---0--|
|--1---3--|
|--0---0--|
|--2---4--|
|--3---5--|
|---------|

Nato pa podobno kot uvod:

E|-------------------------|
H|--15-----12----9----8----|
G|--13-----12----9----9----|
D|--15-----12----10---10---|
A|-------------------------|
E|-------------------------|
Добавлено: 02.08.2015
Вам также может быть интересно:
Другие материалы по этой песне:
  • Аккорды и текст

Страница создана 02.08.2015
http://primanota.ru/mi2/samo-tebe-te-imam-chords.htm
Привет, Гость.
Предлагаем пройти революционный курс по гитаре.
Подарок от PrimaNota.Ru, забирай!