PrimaNota.ru - самый крупный в мире бесплатный архив песенных текстов, аккордов, табулатур и нот


M.F.S.B. - Tsop The Sound Of Philadelphia - таба, бас-таба, видео

Регистрация Запомнить меня
Войти через:  Facebook Google Twitter Vk Yandex Mail.ru

M.F.S.B. - Tsop The Sound Of Philadelphia - таба, бас-таба, видео

Печатать
Просмотров: 113
Уроки эстрадного вокала в Санкт-Петербурге
TSOP (THE SOUND OF PHILADELPHIA)

As recorded by MFSB
(From the 1973 Album LOVE IS THE MESSAGE)

Words and Music by Kenneth Gamble & Leon Huff

Transcribed by Slowhand


Gtr I (E A D G B E) - 'Electric Guitar'
Gtr II (E A D G B E) - 'Strings'
Gtr III (E A D G B E) - 'Horns'
Gtr IV (E A D G B E) - 'Horns'


  Q=118
 4/4
  Gtr I (clean El. Gtr.)
  H    Q  Q      H.      S  E.   W          W
|------------||----------------|----------|------------------------|
|------------||--8-------8s10--|----------|------------------------|
|---------9--||----------------|-9--------|------------------------|
|------------||--5-------5s=7--|----------|------------------------|
|---------7--||----------------|-7--------|------------------------|
|------------||----------------|----------|------------------------|
|
| Gtr II (Strings arr. for Gtr.)           Gtr III (Horns arr. for Gtr.)
| H    Q  Q      H.      Q       W          S E S +E   E  E E  E E
|------------||----------------|----------|------------------------|
|------------||----------------|----------|------------------------|
|------------||----------------|----------|-9-7-7-(7)------------7-|
|------------||----------7-----|----------|-----------10-10-7-10---|
|---------7--||-10-------------|-7--------|------------------------|
|------------||----------------|----------|------------------------|


  H     Q      Q     H.      S  E.   W              W
|-----------------|----------------|--------------|------------------------|
|-----------------|--8-------8s10--|--------------|------------------------|
|--------------9--|----------------|-9------------|------------------------|
|-----------------|--5-------5s=7--|--------------|------------------------|
|--------------7--|----------------|-7------------|------------------------|
|-----------------|----------------|--------------|------------------------|
|
|                 Gtr II                          Gtr III
| Q  Q  S  S E Q     H.      Q       Q  Q   Q  Q    S E S +E   E  E E  E E
|-----------------|----------------|--------------|------------------------|
|-----------------|----------------|--------------|------------------------|
|-9--9--7---------|----------------|--------------|-9-7-7-(7)------------7-|
|---------10-7----|----------7-----|-9--7---------|-----------10-10-7-10---|
|--------------7--|-10-------------|-------10--7--|------------------------|
|-----------------|----------------|--------------|------------------------|


  H      Q  S  E.    H.      S  E.   W          W
|-----------------|----------------|----------|-------------------------|
|-----------8s10--|--8-------8s10--|----------|-------------------------|
|-----------------|----------------|-9--------|-------------------------|
|-----------5s=7--|--5-------5s=7--|----------|-------------------------|
|-----------------|----------------|-7--------|-------------------------|
|-----------------|----------------|----------|-------------------------|
|
|                 Gtr II                      Gtr III
| Q  Q   Q  Q        H.      Q       W          S E S +E   E  E E  E E
|-----------------|----------------|----------|-------------------------|
|-----------------|----------------|----------|-------------------------|
|-9--7------------|----------------|----------|-9-7-7-(7)------------7--|
|-------10--------|----------7-----|----------|-----------10-10-7-10----|
|-----------7-----|-10-------------|-7--------|-------------------------|
|-----------------|----------------|----------|-------------------------|


  H      Q  S  E.   H.          S  E.   W            W
|-----------------|-------------------|------------|-------------------------|
|-----------8s10--|-8-----------8s10--|------------|-------------------------|
|-----------------|-------------------|-9----------|-------------------------|
|-----------5s=7--|-5-----------5s=7--|------------|-------------------------|
|-----------------|-------------------|-7----------|-------------------------|
|-----------------|-------------------|------------|-------------------------|
|
| Q  Q   Q  Q       Q    Q   Q  Q       H.      Q    S E S +E   E  E E  E E
|-----------------|-------------------|------------|-------------------------|
|-----------------|-------------------|------------|-------------------------|
|-9--7------------|-------------7-----|-9----------|-9-7-7-(7)------------7--|
|-------10--------|---------10--------|------------|-----------10-10-7-10----|
|-----------7-----|-----10------------|------------|-------------------------|
|-----------------|-------------------|------------|-------------------------|


               Gtr IV (Horns arr. for Gtr.)
  W                 e  e  S S  S S +Q   Q
|--------------||--------------------------|
|--------------||o-------------------------|
|--------------||----------------8-(8)-----|
|--------------||--10-10-10-8-10-----------|
|--------------||o-------------------------|
|--------------||--------------------------|
|
| Q  Q   Q  Q       Q     Q         Q   Q
|--------------||--------------------------|
|--------------||o-------------------------|
|-9--7---------||--------------------------|
|-------10-----||--------------------------|
|-----------6--||o----------------------6--|
|--------------||---8----------------------|


 1.,2.,3.,4.,5.                6.
   e  e  S S  S S +E   E Q   6x  e  e  S S  S S +E   E Q
|----------------------------||---------------------------||
|---------------------------o||---------------------------||
|---------------8-(8)--------||---------------8-(8)-------||
|-10-10-10-8-10-------10-----||-10-10-10-8-10-------10----||
|---------------------------o||---------------------------||
|----------------------------||---------------------------||
|
|  Q     Q         Q     Q   6x  Q     Q         H
|----------------------------||---------------------------||
|---------------------------o||---------------------------||
|----------------------------||---------------------------||
|----------------------------||---------------------------||
|------------------------6--o||---------------------------||
|--8-------------------------||--8------------------------||


  H    E  E Q      Q   Q    Q  Q    Q  Q     Q   Q      Q    Q      Q  S E.
|---------------|-----------------|----8-----6---8---|-----------------------||
|---------------|-----------------|----8-----6---8---|-----------------------||
|-8---------8---|-10--10---10-----|------------------|-10---10-----10--7s9---||
|------8-10-----|-----------------|------------------|-----------------------||
|---------------|-----------------|------------------|-----------------5s7---||
|---------------|-----------------|------------------|-----------------------||
|
| Gtrs II, III
| H    E  E E E    Q   E E  Q  Q    Q  E S S E E E E    Q.     S S  Q  Q
|---------------|-----------------|------------------|-----------------------||
|---------------|-----------------|------------------|-----------------------||
|---------------|-----------------|------5---5-------|-----------------------||
|-5-------------|--5--------------|--------8---8-5---|--------------5--------||
|-----------6-8-|------8-6--8-----|----------------6-|--8------6-8-----7-----||
|------6--8-----|-----------------|------------------|-----------------------||


   H.      S  E.   W          W                        H      Q  S  E.
|----------------|----------|------------------------|-----------------|
|--8-------8s10--|----------|------------------------|-----------8s10--|
|----------------|-9--------|------------------------|-----------------|
|--5-------5s=7--|----------|------------------------|-----------5s=7--|
|----------------|-7--------|------------------------|-----------------|
|----------------|----------|------------------------|-----------------|
|
| Gtr II                      Gtr III
|  H.      Q       W          S E S +E   E  E E  E E   Q  Q   Q  Q
|----------------|----------|------------------------|-----------------|
|----------------|----------|------------------------|-----------------|
|----------------|----------|-9-7-7-(7)------------7-|-9--7------------|
|----------7-----|----------|-----------10-10-7-10---|-------10--------|
|-10-------------|-7--------|------------------------|-----------7-----|
|----------------|----------|------------------------|-----------------|


   H.      S  E.   W          W                        W
|----------------|----------|------------------------|---------------||
|--8-------8s10--|----------|------------------------|---------------||
|----------------|-9--------|------------------------|---------------||
|--5-------5s=7--|----------|------------------------|---------------||
|----------------|-7--------|------------------------|---------------||
|----------------|----------|------------------------|---------------||
|
| Gtr II                      Gtr III
|  H.      Q       W          S E S +E   E  E E  E E   Q  Q   Q  Q
|----------------|----------|------------------------|---------------||
|----------------|----------|------------------------|---------------||
|----------------|----------|-9-7-7-(7)------------7-|-9--7----------||
|----------7-----|----------|-----------10-10-7-10---|-------10------||
|-10-------------|-7--------|------------------------|-----------6---||
|----------------|----------|------------------------|---------------||


                             1.,2.,3.,4.,5.
    Gtr IV
     e  e  S S  S S +Q   Q     e  e  S S  S S +E   E Q   6x
||--------------------------|----------------------------||
||o-------------------------|---------------------------o||
||----------------8-(8)-----|---------------8-(8)--------||
||--10-10-10-8-10-----------|-10-10-10-8-10-------10-----||
||o-------------------------|---------------------------o||
||--------------------------|----------------------------||
|
|    Q     Q         Q   Q     Q     Q         Q     Q   6x
||--------------------------|----------------------------||
||o-------------------------|---------------------------o||
||--------------------------|----------------------------||
||--------------------------|----------------------------||
||o----------------------6--|------------------------6--o||
||---8----------------------|--8-------------------------||


 6.
   e  e  S S  S S +E   E Q
|----------------------------||
|----------------------------||
|---------------8-(8)--------||
|-10-10-10-8-10-------10-----||
|----------------------------||
|----------------------------||
|
|  Q     Q         H
|----------------------------||
|----------------------------||
|----------------------------||
|----------------------------||
|----------------------------||
|--8-------------------------||


  Gtrs II, IV
  H    E E E E   Q  E E Q  Q    Q  E S S E E E E   Q.   S S Q  Q
|--------------|--------------|------------------|-----------------||
|--------------|--------------|------------------|-----------------||
|--------------|--------------|------5---5-------|-----------------||
|-5------------|-5------------|--------8---8-5---|----------5------||
|----------6-8-|----8-6-8-----|----------------6-|-8----6-8--------||
|------6-8-----|--------------|------------------|-----------------||


   e  e  S S  S S +Q   Q        e  e  S S  S S +E   E Q
|----------------------------|---------------------------|
|----------------------------|---------------------------|
|---------------8-(8)--------|---------------8-(8)-------|
|-10-10-10-8-10--------------|-10-10-10-8-10-------10----|
|----------------------------|---------------------------|
|----------------------------|---------------------------|
|
| Gtr III
|  q     Q         Q   E S S    q     Q         H
|----------------------------|---------------------------|
|----------------------------|---------------------------|
|--5---------------------5-5-|--5------------------------|
|----------------------------|---------------------------|
|----------------------------|---------------------------|
|----------------------------|---------------------------|


   e  e  S S  S S +Q   Q        e  e  S S  S S +E   E Q
|----------------------------|----------------------------|
|----------------------------|----------------------------|
|---------------8-(8)--------|---------------8-(8)--------|
|-10-10-10-8-10--------------|-10-10-10-8-10-------10-----|
|----------------------------|----------------------------|
|----------------------------|----------------------------|
|
|  q     Q         Q   E S S    q     Q         H
|----------------------------|----------------------------|
|----------------------------|----------------------------|
|--5---------------------5-5-|--5-------------------------|
|----------------------------|----------------------------|
|----------------------------|----------------------------|
|----------------------------|----------------------------|


   e  e  S S  S S +Q   Q     e   e  S S  S S +E   E   Q
|-------------------------|--------------------------------|
|-------------------------|--------------------------------|
|---------------8-(8)-----|----------------8-(8)-----------|
|-10-10-10-8-10-----------|-10--10-10-8-10-------10--------|
|-------------------------|--------------------------------|
|-------------------------|--------------------------------|
|
|  W                        +H               +E   S S S E.
|-------------------------|--------------------------------|
|-------------------------|--------------------------------|
|--5----------------------|-(5)--------------(5)--5---5-8--|
|-------------------------|-------------------------8------|
|-------------------------|--------------------------------|
|-------------------------|--------------------------------|


   e  e  S S  S S +Q   Q     e   e  S S  S S +E   E   Q
|-------------------------|---------------------------------||
|-------------------------|---------------------------------||
|---------------8-(8)-----|----------------8-(8)------------||
|-10-10-10-8-10-----------|-10--10-10-8-10-------10---------||
|-------------------------|---------------------------------||
|-------------------------|---------------------------------||
|
|  W                        +H               +E   S S S E.
|-------------------------|---------------------------------||
|-------------------------|---------------------------------||
|--5----------------------|-(5)--------------(5)--5---5-8---||
|-------------------------|-------------------------8-------||
|-------------------------|---------------------------------||
|-------------------------|---------------------------------||


     e  e    S S  S S +Q    Q      e  e    S S  S S +E   E Q
||------------------------------|------------------------------|
||o-----------------------------|------------------------------|
||------------------8-(8)-------|-----------------8-(8)--------|
||--10-10---10-8-10-------------|-10-10---10-8-10-------10-----|
||o-----------------------------|------------------------------|
||------------------------------|------------------------------|
|
|    E  S S  E    E    E  E E E    E  S S  E    E    E   E E E
||------------------------------|------------------------------|
||o-----------------------------|------------------------------|
||------5-----------------------|-----5------------------------|
||--------8--5------------------|-------8--5-------------------|
||o---------------8----6--8-6-8-|---------------8----6---8-6---|
||------------------------------|----------------------------8-|


   e  e    S S  S S +Q    Q      e  e    S S  S S +E   E Q
|-----------------------------|--------------------------------||
|-----------------------------|-------------------------------o||
|-----------------8-(8)-------|-----------------8-(8)----------||
|-10-10---10-8-10-------------|-10-10---10-8-10-------10-------||
|-----------------------------|-------------------------------o||
|-----------------------------|--------------------------------||
|
|  E  S S  E    E    E  E E E    E  S S  E    E    E   E E E
|-----------------------------|--------------------------------||
|-----------------------------|-------------------------------o||
|-----5-----------------------|-----5--------------------------||
|-------8--5------------------|-------8--5---------------------||
|---------------8----6--8-6-8-|---------------8----6---8-6----o||
|-----------------------------|----------------------------8---||


   e   e  S S  S S +Q   Q        e     e  S S  S S +E   E Q
|-----------------------------|------------------------------|
|-----------------------------|------------------------------|
|----------------8-(8)--------|------------------8-(8)-------|
|-10--10-10-8-10--------------|-10----10-10-8-10-------10----|
|-----------------------------|------------------------------|
|-----------------------------|------------------------------|
|
|  H.                   E S S    S E.     H               Q
|-----------------------------|------------------------------|
|-----------------------------|------------------------------|
|--5----------------------5---|--5-8------5------------------|
|---------------------------8-|------------------------------|
|-----------------------------|------------------------------|
|-----------------------------|------------------------------|


   e   e  S S  S S +Q   Q        e     e  S S  S S +E   E Q
|-----------------------------|--------------------------------||
|-----------------------------|--------------------------------||
|----------------8-(8)--------|------------------8-(8)---------||
|-10--10-10-8-10--------------|-10----10-10-8-10-------10------||
|-----------------------------|--------------------------------||
|-----------------------------|--------------------------------||
|
|  H.                   E S S    S E.     H               Q
|-----------------------------|--------------------------------||
|-----------------------------|--------------------------------||
|--5----------------------5---|--5-8------5--------------------||
|---------------------------8-|--------------------------------||
|-----------------------------|--------------------------------||
|-----------------------------|--------------------------------||


     e  e  S S  S S +Q   Q     e  e  S S  S S +E   E Q
||--------------------------|---------------------------|
||o-------------------------|---------------------------|
||----------------8-(8)-----|---------------8-(8)-------|
||--10-10-10-8-10-----------|-10-10-10-8-10-------10----|
||o-------------------------|---------------------------|
||--------------------------|---------------------------|


   e  e  S S  S S +Q   Q     e  e  S S  S S +E   E Q     4x
|-------------------------|------------------------------||
|-------------------------|-----------------------------o||
|---------------8-(8)-----|---------------8-(8)----------||
|-10-10-10-8-10-----------|-10-10-10-8-10-------10-------||
|-------------------------|-----------------------------o||
|-------------------------|------------------------------||


Duration Legend
---------------
W - whole; H - half; Q - quarter; E - 8th; S - 16th; T - 32nd; X - 64th; a - acciaccatura
+ - note tied to previous; . - note dotted; .. - note double dotted
Uncapitalized letters represent notes that are staccato (1/2 duration)
Irregular groupings are notated above the duration line
Duration letters will always appear directly above the note/fret number it represents the
duration for.  Duration letters with no fret number below them represent rests.  Multi-
bar rests are notated in the form Wxn, where n is the number of bars to rest for.  Low
melody durations appear below the staff

Tablature Legend
----------------
 h   - hammer-on
 p   - pull-off
 b   - bend
 pb  - pre-bend
 r   - bend release (if no number after the r, then release immediately)
 /\  - slide into or out of (from/to "nowhere")
 s   - legato slide
 S   - shift slide
  - natural harmonic
[n]  - artificial harmonic
n(n) - tapped harmonic
 ~   - vibrato
 tr  - trill
 T   - tap
 TP  - trem. picking
 PM  - palm muting
\n/  - tremolo bar dip; n = amount to dip
 \n  - tremolo bar down
 n/  - tremolo bar up
/n\  - tremolo bar inverted dip
 =   - hold bend; also acts as connecting device for hammers/pulls
 <>  - volume swell (louder/softer)
 x   - on rhythm slash represents muted slash
 o   - on rhythm slash represents single note slash

Misc Legend
-----------
 |  - bar
||  - double bar
||o - repeat start
o|| - repeat end
*|  - double bar (ending)
 :  - bar (freetime)
 $  - Segno
 &  - Coda
Tempo markers -  = BPM(8/16=s8/s16), where s8 = swing 8ths, s16 = swing 16ths
Добавлено: 02.01.2016
Другие материалы по этой песне:

Страница создана 12.11.2015
http://primanota.ru/mfsb/tsop-sound-of-philadelphia-chords.htm
Привет, Гость.
Предлагаем пройти революционный курс по гитаре.
Подарок от PrimaNota.Ru, забирай!